  0
SECTION
  2
HEADER
  9
$ACADVER
  1
AC1009
  9
$FILLMODE
 70
0
  9
$EXTMIN
 10
-4.1350
 20
-0.3250
 30
0.0000
  9
$EXTMAX
 10
105.2957
 20
41.1480
 30
0.0000
  0
ENDSEC
  0
SECTION
  2
TABLES
  0
TABLE
  2
LTYPE
 70
1
  0
LTYPE
  2
CONTINUOUS
 70
64
  3
Solid line
 72
65
 73
0
 40
0
  0
ENDTAB
  0
TABLE
  2
LAYER
 70
255
  0
LAYER
  2
20
 70
64
 62
178
  6
CONTINUOUS
  0
LAYER
  2
21
 70
64
 62
251
  6
CONTINUOUS
  0
LAYER
  2
46
 70
64
 62
134
  6
CONTINUOUS
  0
LAYER
  2
49
 70
64
 62
251
  6
CONTINUOUS
  0
ENDTAB
  0
ENDSEC
  0
SECTION
  2
BLOCKS
  0
BLOCK
  8
0
  2
RECT
 70
64
 10
0.0000
 20
0.0000
 30
0.0000
  3
RECT
  0
SOLID
  8
0
 10
-0.5000
 20
-0.5000
 30
0.0000
 11
0.5000
 21
-0.5000
 31
0.0000
 12
-0.5000
 22
0.5000
 32
0.0000
 13
0.5000
 23
0.5000
 33
0.0000
  0
ENDBLK
  8
0
  0
BLOCK
  8
0
  2
PIE
 70
64
 10
0.0000
 20
0.0000
 30
0.0000
  3
PIE
  0
CIRCLE
  8
0
 10
0.0000
 20
0.0000
 30
0.0000
 40
0.5000
  0
ENDBLK
  8
0
  0
BLOCK
  8
0
  2
OCTAGONP
 70
64
 10
0.0000
 20
0.0000
 30
0.0000
  3
OCTAGONP
  0
POLYLINE
  8
0
 66
1
 10
0.0000
 20
0.0000
 30
0.0000
 40
0.0000
 41
0.0000
 70
1
  0
VERTEX
  8
0
 10
-0.5000
 20
-0.2071
 30
0.0000
  0
VERTEX
  8
0
 10
-0.5000
 20
0.2071
 30
0.0000
  0
VERTEX
  8
0
 10
-0.2071
 20
0.5000
 30
0.0000
  0
VERTEX
  8
0
 10
0.2071
 20
0.5000
 30
0.0000
  0
VERTEX
  8
0
 10
0.5000
 20
0.2071
 30
0.0000
  0
VERTEX
  8
0
 10
0.5000
 20
-0.2071
 30
0.0000
  0
VERTEX
  8
0
 10
0.2071
 20
-0.5000
 30
0.0000
  0
VERTEX
  8
0
 10
-0.2071
 20
-0.5000
 30
0.0000
  0
SEQEND
  8
0
  0
ENDBLK
  8
0
  0
BLOCK
  8
0
  2
SQUAREP
 70
64
 10
0.0000
 20
0.0000
 30
0.0000
  3
SQUAREP
  0
SOLID
  8
0
 10
-0.5000
 20
-0.5000
 30
0.0000
 11
0.5000
 21
-0.5000
 31
0.0000
 12
-0.5000
 22
0.5000
 32
0.0000
 13
0.5000
 23
0.5000
 33
0.0000
  0
ENDBLK
  8
0
  0
BLOCK
  8
0
  2
ROUNDP
 70
64
 10
0.0000
 20
0.0000
 30
0.0000
  3
ROUNDP
  0
CIRCLE
  8
0
 10
0.0000
 20
0.0000
 30
0.0000
 40
0.5000
  0
ENDBLK
  8
0
  0
BLOCK
  8
0
  2
ANNULUSP
 70
64
 10
0.0000
 20
0.0000
 30
0.0000
  3
ANNULUSP
  0
CIRCLE
  8
0
 10
0.0000
 20
0.0000
 30
0.0000
 40
0.5000
  0
ENDBLK
  8
0
  0
BLOCK
  8
0
  2
THERMALP
 70
64
 10
0.0000
 20
0.0000
 30
0.0000
  3
THERMALP
  0
LINE
  8
0
 10
-0.2379
 20
0.4500
 30
0.0000
 11
0.2379
 21
0.4500
 31
0.0000
  0
LINE
  8
0
 10
0.4500
 20
0.2379
 30
0.0000
 11
0.4500
 21
-0.2379
 31
0.0000
  0
LINE
  8
0
 10
0.2379
 20
-0.4500
 30
0.0000
 11
-0.2379
 21
-0.4500
 31
0.0000
  0
LINE
  8
0
 10
-0.4500
 20
-0.2379
 30
0.0000
 11
-0.4500
 21
0.2379
 31
0.0000
  0
ENDBLK
  8
0
  0
BLOCK
  8
0
  2
OCTAGONV
 70
64
 10
0.0000
 20
0.0000
 30
0.0000
  3
OCTAGONV
  0
POLYLINE
  8
0
 66
1
 10
0.0000
 20
0.0000
 30
0.0000
 40
0.0000
 41
0.0000
 70
1
  0
VERTEX
  8
0
 10
-0.5000
 20
-0.2071
 30
0.0000
  0
VERTEX
  8
0
 10
-0.5000
 20
0.2071
 30
0.0000
  0
VERTEX
  8
0
 10
-0.2071
 20
0.5000
 30
0.0000
  0
VERTEX
  8
0
 10
0.2071
 20
0.5000
 30
0.0000
  0
VERTEX
  8
0
 10
0.5000
 20
0.2071
 30
0.0000
  0
VERTEX
  8
0
 10
0.5000
 20
-0.2071
 30
0.0000
  0
VERTEX
  8
0
 10
0.2071
 20
-0.5000
 30
0.0000
  0
VERTEX
  8
0
 10
-0.2071
 20
-0.5000
 30
0.0000
  0
SEQEND
  8
0
  0
ENDBLK
  8
0
  0
BLOCK
  8
0
  2
SQUAREV
 70
64
 10
0.0000
 20
0.0000
 30
0.0000
  3
SQUAREV
  0
SOLID
  8
0
 10
-0.5000
 20
-0.5000
 30
0.0000
 11
0.5000
 21
-0.5000
 31
0.0000
 12
-0.5000
 22
0.5000
 32
0.0000
 13
0.5000
 23
0.5000
 33
0.0000
  0
ENDBLK
  8
0
  0
BLOCK
  8
0
  2
ROUNDV
 70
64
 10
0.0000
 20
0.0000
 30
0.0000
  3
ROUNDV
  0
CIRCLE
  8
0
 10
0.0000
 20
0.0000
 30
0.0000
 40
0.5000
  0
ENDBLK
  8
0
  0
BLOCK
  8
0
  2
ANNULUSV
 70
64
 10
0.0000
 20
0.0000
 30
0.0000
  3
ANNULUSV
  0
CIRCLE
  8
0
 10
0.0000
 20
0.0000
 30
0.0000
 40
0.5000
  0
ENDBLK
  8
0
  0
BLOCK
  8
0
  2
THERMALV
 70
64
 10
0.0000
 20
0.0000
 30
0.0000
  3
THERMALV
  0
LINE
  8
0
 10
-0.2379
 20
0.4500
 30
0.0000
 11
0.2379
 21
0.4500
 31
0.0000
  0
LINE
  8
0
 10
0.4500
 20
0.2379
 30
0.0000
 11
0.4500
 21
-0.2379
 31
0.0000
  0
LINE
  8
0
 10
0.2379
 20
-0.4500
 30
0.0000
 11
-0.2379
 21
-0.4500
 31
0.0000
  0
LINE
  8
0
 10
-0.4500
 20
-0.2379
 30
0.0000
 11
-0.4500
 21
0.2379
 31
0.0000
  0
ENDBLK
  8
0
  0
BLOCK
  8
0
  2
LONGP80
 70
64
 10
0.0000
 20
0.0000
 30
0.0000
  3
LONGP80
  0
POLYLINE
  8
0
 66
1
 10
0.0000
 20
0.0000
 30
0.0000
 40
0.0000
 41
0.0000
 70
1
  0
VERTEX
  8
0
 10
-0.4000
 20
-0.5000
 30
0.0000
  0
VERTEX
  8
0
 10
0.4000
 20
-0.5000
 30
0.0000
 42
1.0000
  0
VERTEX
  8
0
 10
0.4000
 20
0.5000
 30
0.0000
  0
VERTEX
  8
0
 10
-0.4000
 20
0.5000
 30
0.0000
 42
1.0000
  0
SEQEND
  8
0
  0
ENDBLK
  8
0
  0
ENDSEC
  0
SECTION
  2
ENTITIES
  0
LINE
  8
20
 10
-3.8100
 20
0.0000
 30
0.0000
 11
-3.8100
 21
40.6400
 31
0.0000
  0
LINE
  8
20
 10
-3.8100
 20
40.6400
 30
0.0000
 11
104.9707
 21
40.6400
 31
0.0000
  0
LINE
  8
20
 10
104.9707
 20
40.6400
 30
0.0000
 11
104.9707
 21
0.0000
 31
0.0000
  0
LINE
  8
20
 10
104.9707
 20
0.0000
 30
0.0000
 11
-3.8100
 21
0.0000
 31
0.0000
  0
LINE
  8
49
 10
88.2650
 20
3.8100
 30
0.0000
 11
92.9057
 21
36.8300
 31
0.0000
  0
LINE
  8
49
 10
64.1350
 20
3.8100
 30
0.0000
 11
68.7757
 21
36.8300
 31
0.0000
  0
LINE
  8
49
 10
32.3850
 20
3.8100
 30
0.0000
 11
37.0257
 21
36.8300
 31
0.0000
  0
LINE
  8
49
 10
8.2550
 20
3.8100
 30
0.0000
 11
12.8957
 21
36.8300
 31
0.0000
  0
LINE
  8
49
 10
48.2600
 20
3.8100
 30
0.0000
 11
52.9007
 21
36.8300
 31
0.0000
  0
LINE
  8
21
 10
5.3975
 20
22.2250
 30
0.0000
 11
6.0325
 21
22.2250
 31
0.0000
  0
LINE
  8
21
 10
5.7150
 20
22.5425
 30
0.0000
 11
5.7150
 21
21.9075
 31
0.0000
  0
LINE
  8
21
 10
31.1150
 20
11.7475
 30
0.0000
 11
31.1150
 21
5.7150
 31
0.0000
  0
LINE
  8
21
 10
31.1150
 20
5.7150
 30
0.0000
 11
36.1950
 21
5.7150
 31
0.0000
  0
LINE
  8
21
 10
36.1950
 20
5.7150
 30
0.0000
 11
36.1950
 21
11.7475
 31
0.0000
  0
LINE
  8
49
 10
16.5100
 20
3.8100
 30
0.0000
 11
21.1507
 21
36.8300
 31
0.0000
  0
LINE
  8
49
 10
24.1300
 20
3.8100
 30
0.0000
 11
28.7707
 21
36.8300
 31
0.0000
  0
LINE
  8
49
 10
0.0000
 20
3.8100
 30
0.0000
 11
4.6407
 21
36.8300
 31
0.0000
  0
LINE
  8
49
 10
40.6400
 20
3.8100
 30
0.0000
 11
45.2807
 21
36.8300
 31
0.0000
  0
LINE
  8
49
 10
55.8800
 20
3.8100
 30
0.0000
 11
60.5207
 21
36.8300
 31
0.0000
  0
LINE
  8
49
 10
72.3900
 20
3.8100
 30
0.0000
 11
77.0307
 21
36.8300
 31
0.0000
  0
LINE
  8
49
 10
80.0100
 20
3.8100
 30
0.0000
 11
84.6507
 21
36.8300
 31
0.0000
  0
LINE
  8
49
 10
96.5200
 20
3.8100
 30
0.0000
 11
101.1607
 21
36.8300
 31
0.0000
  0
LINE
  8
21
 10
4.4450
 20
23.1775
 30
0.0000
 11
5.0800
 21
23.1775
 31
0.0000
  0
CIRCLE
  8
20
 10
-0.6350
 20
3.1750
 30
0.0000
 40
1.6000
  0
CIRCLE
  8
20
 10
-0.6350
 20
37.4650
 30
0.0000
 40
1.6000
  0
CIRCLE
  8
20
 10
101.7957
 20
37.4650
 30
0.0000
 40
1.6000
  0
CIRCLE
  8
20
 10
101.7957
 20
3.1750
 30
0.0000
 40
1.6000
  0
CIRCLE
  8
20
 10
20.5613
 20
36.8300
 30
0.0000
 40
1.6000
  0
CIRCLE
  8
20
 10
80.6069
 20
36.8300
 30
0.0000
 40
1.6000
  0
LINE
  8
21
 10
9.5031
 20
21.8134
 30
0.0000
 11
18.4949
 21
30.4966
 31
0.0000
  0
LINE
  8
21
 10
18.4949
 20
30.4966
 30
0.0000
 11
13.7712
 21
35.3881
 31
0.0000
  0
LINE
  8
21
 10
13.7712
 20
35.3881
 30
0.0000
 11
4.7794
 21
26.7049
 31
0.0000
  0
LINE
  8
21
 10
4.7794
 20
26.7049
 30
0.0000
 11
9.5031
 21
21.8134
 31
0.0000
  0
LINE
  8
21
 10
8.5769
 20
23.8522
 30
0.0000
 11
9.2962
 21
24.5468
 31
0.0000
  0
LINE
  8
21
 10
8.5892
 20
24.5592
 30
0.0000
 11
9.2839
 21
23.8398
 31
0.0000
  0
LINE
  8
20
 10
4.9854
 20
26.3477
 30
0.0000
 11
9.1533
 21
22.0316
 31
0.0000
  0
ARC
  8
20
 10
9.5130
 20
22.3790
 30
0.0000
 40
0.5000
 50
224.0000
 51
314.0000
  0
LINE
  8
20
 10
9.8603
 20
22.0193
 30
0.0000
 11
18.2766
 21
30.1468
 31
0.0000
  0
ARC
  8
20
 10
17.9293
 20
30.5065
 30
0.0000
 40
0.5000
 50
314.0000
 51
44.0000
  0
LINE
  8
20
 10
18.2889
 20
30.8538
 30
0.0000
 11
14.1210
 21
35.1698
 31
0.0000
  0
ARC
  8
20
 10
13.7613
 20
34.8225
 30
0.0000
 40
0.5000
 50
44.0000
 51
134.0000
  0
LINE
  8
20
 10
13.4140
 20
35.1822
 30
0.0000
 11
4.9977
 21
27.0547
 31
0.0000
  0
ARC
  8
20
 10
5.3450
 20
26.6950
 30
0.0000
 40
0.5000
 50
134.0000
 51
224.0000
  0
LINE
  8
21
 10
28.7957
 20
17.7800
 30
0.0000
 11
33.1137
 21
17.7800
 31
0.0000
  0
LINE
  8
21
 10
33.1137
 20
15.2400
 30
0.0000
 11
28.7957
 21
15.2400
 31
0.0000
  0
LINE
  8
21
 10
33.3677
 20
17.5260
 30
0.0000
 11
33.3677
 21
15.4940
 31
0.0000
  0
LINE
  8
21
 10
28.5417
 20
17.5260
 30
0.0000
 11
28.5417
 21
15.4940
 31
0.0000
  0
ARC
  8
21
 10
33.1137
 20
17.5260
 30
0.0000
 40
0.2540
 50
0.0000
 51
90.0000
  0
ARC
  8
21
 10
28.7957
 20
17.5260
 30
0.0000
 40
0.2540
 50
90.0000
 51
180.0000
  0
ARC
  8
21
 10
33.1137
 20
15.4940
 30
0.0000
 40
0.2540
 50
270.0000
 51
0.0000
  0
ARC
  8
21
 10
28.7957
 20
15.4940
 30
0.0000
 40
0.2540
 50
180.0000
 51
270.0000
  0
LINE
  8
21
 10
31.3357
 20
16.5100
 30
0.0000
 11
31.2087
 21
16.5100
 31
0.0000
  0
LINE
  8
21
 10
31.2087
 20
16.5100
 30
0.0000
 11
31.2087
 21
17.2720
 31
0.0000
  0
LINE
  8
21
 10
31.2087
 20
16.5100
 30
0.0000
 11
31.2087
 21
15.7480
 31
0.0000
  0
LINE
  8
21
 10
30.7007
 20
17.2720
 30
0.0000
 11
30.7007
 21
16.5100
 31
0.0000
  0
LINE
  8
21
 10
30.7007
 20
16.5100
 30
0.0000
 11
30.7007
 21
15.7480
 31
0.0000
  0
LINE
  8
21
 10
30.7007
 20
16.5100
 30
0.0000
 11
30.5737
 21
16.5100
 31
0.0000
  0
LINE
  8
21
 10
39.4637
 20
15.2400
 30
0.0000
 11
35.1457
 21
15.2400
 31
0.0000
  0
LINE
  8
21
 10
35.1457
 20
17.7800
 30
0.0000
 11
39.4637
 21
17.7800
 31
0.0000
  0
LINE
  8
21
 10
34.8917
 20
15.4940
 30
0.0000
 11
34.8917
 21
17.5260
 31
0.0000
  0
LINE
  8
21
 10
39.7177
 20
15.4940
 30
0.0000
 11
39.7177
 21
17.5260
 31
0.0000
  0
ARC
  8
21
 10
35.1457
 20
15.4940
 30
0.0000
 40
0.2540
 50
180.0000
 51
270.0000
  0
ARC
  8
21
 10
39.4637
 20
15.4940
 30
0.0000
 40
0.2540
 50
270.0000
 51
0.0000
  0
ARC
  8
21
 10
35.1457
 20
17.5260
 30
0.0000
 40
0.2540
 50
90.0000
 51
180.0000
  0
ARC
  8
21
 10
39.4637
 20
17.5260
 30
0.0000
 40
0.2540
 50
0.0000
 51
90.0000
  0
LINE
  8
21
 10
36.9237
 20
16.5100
 30
0.0000
 11
37.0507
 21
16.5100
 31
0.0000
  0
LINE
  8
21
 10
37.0507
 20
16.5100
 30
0.0000
 11
37.0507
 21
15.7480
 31
0.0000
  0
LINE
  8
21
 10
37.0507
 20
16.5100
 30
0.0000
 11
37.0507
 21
17.2720
 31
0.0000
  0
LINE
  8
21
 10
37.5587
 20
15.7480
 30
0.0000
 11
37.5587
 21
16.5100
 31
0.0000
  0
LINE
  8
21
 10
37.5587
 20
16.5100
 30
0.0000
 11
37.5587
 21
17.2720
 31
0.0000
  0
LINE
  8
21
 10
37.5587
 20
16.5100
 30
0.0000
 11
37.6857
 21
16.5100
 31
0.0000
  0
LINE
  8
21
 10
73.6614
 20
32.3850
 30
0.0000
 11
69.3434
 21
32.3850
 31
0.0000
  0
LINE
  8
21
 10
69.3434
 20
34.9250
 30
0.0000
 11
73.6614
 21
34.9250
 31
0.0000
  0
LINE
  8
21
 10
69.0894
 20
32.6390
 30
0.0000
 11
69.0894
 21
34.6710
 31
0.0000
  0
LINE
  8
21
 10
73.9154
 20
32.6390
 30
0.0000
 11
73.9154
 21
34.6710
 31
0.0000
  0
ARC
  8
21
 10
69.3434
 20
32.6390
 30
0.0000
 40
0.2540
 50
180.0000
 51
270.0000
  0
ARC
  8
21
 10
73.6614
 20
32.6390
 30
0.0000
 40
0.2540
 50
270.0000
 51
0.0000
  0
ARC
  8
21
 10
69.3434
 20
34.6710
 30
0.0000
 40
0.2540
 50
90.0000
 51
180.0000
  0
ARC
  8
21
 10
73.6614
 20
34.6710
 30
0.0000
 40
0.2540
 50
0.0000
 51
90.0000
  0
LINE
  8
21
 10
71.1214
 20
33.6550
 30
0.0000
 11
71.2484
 21
33.6550
 31
0.0000
  0
LINE
  8
21
 10
71.2484
 20
33.6550
 30
0.0000
 11
71.2484
 21
32.8930
 31
0.0000
  0
LINE
  8
21
 10
71.2484
 20
33.6550
 30
0.0000
 11
71.2484
 21
34.4170
 31
0.0000
  0
LINE
  8
21
 10
71.7564
 20
32.8930
 30
0.0000
 11
71.7564
 21
33.6550
 31
0.0000
  0
LINE
  8
21
 10
71.7564
 20
33.6550
 30
0.0000
 11
71.7564
 21
34.4170
 31
0.0000
  0
LINE
  8
21
 10
71.7564
 20
33.6550
 30
0.0000
 11
71.8834
 21
33.6550
 31
0.0000
  0
LINE
  8
21
 10
62.9934
 20
34.9250
 30
0.0000
 11
67.3114
 21
34.9250
 31
0.0000
  0
LINE
  8
21
 10
67.3114
 20
32.3850
 30
0.0000
 11
62.9934
 21
32.3850
 31
0.0000
  0
LINE
  8
21
 10
67.5654
 20
34.6710
 30
0.0000
 11
67.5654
 21
32.6390
 31
0.0000
  0
LINE
  8
21
 10
62.7394
 20
34.6710
 30
0.0000
 11
62.7394
 21
32.6390
 31
0.0000
  0
ARC
  8
21
 10
67.3114
 20
34.6710
 30
0.0000
 40
0.2540
 50
0.0000
 51
90.0000
  0
ARC
  8
21
 10
62.9934
 20
34.6710
 30
0.0000
 40
0.2540
 50
90.0000
 51
180.0000
  0
ARC
  8
21
 10
67.3114
 20
32.6390
 30
0.0000
 40
0.2540
 50
270.0000
 51
0.0000
  0
ARC
  8
21
 10
62.9934
 20
32.6390
 30
0.0000
 40
0.2540
 50
180.0000
 51
270.0000
  0
LINE
  8
21
 10
65.5334
 20
33.6550
 30
0.0000
 11
65.4064
 21
33.6550
 31
0.0000
  0
LINE
  8
21
 10
65.4064
 20
33.6550
 30
0.0000
 11
65.4064
 21
34.4170
 31
0.0000
  0
LINE
  8
21
 10
65.4064
 20
33.6550
 30
0.0000
 11
65.4064
 21
32.8930
 31
0.0000
  0
LINE
  8
21
 10
64.8984
 20
34.4170
 30
0.0000
 11
64.8984
 21
33.6550
 31
0.0000
  0
LINE
  8
21
 10
64.8984
 20
33.6550
 30
0.0000
 11
64.8984
 21
32.8930
 31
0.0000
  0
LINE
  8
21
 10
64.8984
 20
33.6550
 30
0.0000
 11
64.7714
 21
33.6550
 31
0.0000
  0
LINE
  8
21
 10
39.0729
 20
34.6075
 30
0.0000
 11
33.9929
 21
34.6075
 31
0.0000
  0
LINE
  8
21
 10
33.9929
 20
32.0675
 30
0.0000
 11
39.0729
 21
32.0675
 31
0.0000
  0
LINE
  8
21
 10
33.9929
 20
34.6075
 30
0.0000
 11
33.9929
 21
32.0675
 31
0.0000
  0
LINE
  8
21
 10
39.0729
 20
32.0675
 30
0.0000
 11
39.0729
 21
34.6075
 31
0.0000
  0
LINE
  8
21
 10
37.1679
 20
33.3375
 30
0.0000
 11
36.5329
 21
33.3375
 31
0.0000
  0
LINE
  8
21
 10
35.2629
 20
32.7025
 30
0.0000
 11
35.2629
 21
33.9725
 31
0.0000
  0
LINE
  8
21
 10
35.2629
 20
33.9725
 30
0.0000
 11
36.5329
 21
33.3375
 31
0.0000
  0
LINE
  8
21
 10
35.2629
 20
33.3375
 30
0.0000
 11
34.6279
 21
33.3375
 31
0.0000
  0
LINE
  8
21
 10
36.5329
 20
33.3375
 30
0.0000
 11
35.2629
 21
32.7025
 31
0.0000
  0
LINE
  8
21
 10
36.5329
 20
32.7025
 30
0.0000
 11
36.5329
 21
33.3375
 31
0.0000
  0
LINE
  8
21
 10
36.5329
 20
33.3375
 30
0.0000
 11
36.5329
 21
33.9725
 31
0.0000
  0
INSERT
  8
21
  2
RECT
 10
38.0569
 20
33.3375
 30
0.0000
 41
0.5080
 42
2.5400
 43
1.0000
 50
180.0000
  0
INSERT
  8
21
  2
RECT
 10
39.7714
 20
33.3375
 30
0.0000
 41
1.3970
 42
0.5080
 43
1.0000
 50
180.0000
  0
INSERT
  8
21
  2
RECT
 10
33.2944
 20
33.3375
 30
0.0000
 41
1.3970
 42
0.5080
 43
1.0000
 50
180.0000
  0
LINE
  8
21
 10
38.6268
 20
31.4325
 30
0.0000
 11
33.5468
 21
31.4325
 31
0.0000
  0
LINE
  8
21
 10
33.5468
 20
28.8925
 30
0.0000
 11
38.6268
 21
28.8925
 31
0.0000
  0
LINE
  8
21
 10
33.5468
 20
31.4325
 30
0.0000
 11
33.5468
 21
28.8925
 31
0.0000
  0
LINE
  8
21
 10
38.6268
 20
28.8925
 30
0.0000
 11
38.6268
 21
31.4325
 31
0.0000
  0
LINE
  8
21
 10
36.7218
 20
30.1625
 30
0.0000
 11
36.0868
 21
30.1625
 31
0.0000
  0
LINE
  8
21
 10
34.8168
 20
29.5275
 30
0.0000
 11
34.8168
 21
30.7975
 31
0.0000
  0
LINE
  8
21
 10
34.8168
 20
30.7975
 30
0.0000
 11
36.0868
 21
30.1625
 31
0.0000
  0
LINE
  8
21
 10
34.8168
 20
30.1625
 30
0.0000
 11
34.1818
 21
30.1625
 31
0.0000
  0
LINE
  8
21
 10
36.0868
 20
30.1625
 30
0.0000
 11
34.8168
 21
29.5275
 31
0.0000
  0
LINE
  8
21
 10
36.0868
 20
29.5275
 30
0.0000
 11
36.0868
 21
30.1625
 31
0.0000
  0
LINE
  8
21
 10
36.0868
 20
30.1625
 30
0.0000
 11
36.0868
 21
30.7975
 31
0.0000
  0
INSERT
  8
21
  2
RECT
 10
37.6108
 20
30.1625
 30
0.0000
 41
0.5080
 42
2.5400
 43
1.0000
 50
180.0000
  0
INSERT
  8
21
  2
RECT
 10
39.3253
 20
30.1625
 30
0.0000
 41
1.3970
 42
0.5080
 43
1.0000
 50
180.0000
  0
INSERT
  8
21
  2
RECT
 10
32.8483
 20
30.1625
 30
0.0000
 41
1.3970
 42
0.5080
 43
1.0000
 50
180.0000
  0
LINE
  8
21
 10
33.1007
 20
25.7175
 30
0.0000
 11
38.1807
 21
25.7175
 31
0.0000
  0
LINE
  8
21
 10
38.1807
 20
28.2575
 30
0.0000
 11
33.1007
 21
28.2575
 31
0.0000
  0
LINE
  8
21
 10
38.1807
 20
25.7175
 30
0.0000
 11
38.1807
 21
28.2575
 31
0.0000
  0
LINE
  8
21
 10
33.1007
 20
28.2575
 30
0.0000
 11
33.1007
 21
25.7175
 31
0.0000
  0
LINE
  8
21
 10
35.0057
 20
26.9875
 30
0.0000
 11
35.6407
 21
26.9875
 31
0.0000
  0
LINE
  8
21
 10
36.9107
 20
27.6225
 30
0.0000
 11
36.9107
 21
26.3525
 31
0.0000
  0
LINE
  8
21
 10
36.9107
 20
26.3525
 30
0.0000
 11
35.6407
 21
26.9875
 31
0.0000
  0
LINE
  8
21
 10
36.9107
 20
26.9875
 30
0.0000
 11
37.5457
 21
26.9875
 31
0.0000
  0
LINE
  8
21
 10
35.6407
 20
26.9875
 30
0.0000
 11
36.9107
 21
27.6225
 31
0.0000
  0
LINE
  8
21
 10
35.6407
 20
27.6225
 30
0.0000
 11
35.6407
 21
26.9875
 31
0.0000
  0
LINE
  8
21
 10
35.6407
 20
26.9875
 30
0.0000
 11
35.6407
 21
26.3525
 31
0.0000
  0
INSERT
  8
21
  2
RECT
 10
34.1167
 20
26.9875
 30
0.0000
 41
0.5080
 42
2.5400
 43
1.0000
 50
0.0000
  0
INSERT
  8
21
  2
RECT
 10
32.4022
 20
26.9875
 30
0.0000
 41
1.3970
 42
0.5080
 43
1.0000
 50
0.0000
  0
INSERT
  8
21
  2
RECT
 10
38.8792
 20
26.9875
 30
0.0000
 41
1.3970
 42
0.5080
 43
1.0000
 50
0.0000
  0
LINE
  8
21
 10
32.6547
 20
22.5425
 30
0.0000
 11
37.7347
 21
22.5425
 31
0.0000
  0
LINE
  8
21
 10
37.7347
 20
25.0825
 30
0.0000
 11
32.6547
 21
25.0825
 31
0.0000
  0
LINE
  8
21
 10
37.7347
 20
22.5425
 30
0.0000
 11
37.7347
 21
25.0825
 31
0.0000
  0
LINE
  8
21
 10
32.6547
 20
25.0825
 30
0.0000
 11
32.6547
 21
22.5425
 31
0.0000
  0
LINE
  8
21
 10
34.5597
 20
23.8125
 30
0.0000
 11
35.1947
 21
23.8125
 31
0.0000
  0
LINE
  8
21
 10
36.4647
 20
24.4475
 30
0.0000
 11
36.4647
 21
23.1775
 31
0.0000
  0
LINE
  8
21
 10
36.4647
 20
23.1775
 30
0.0000
 11
35.1947
 21
23.8125
 31
0.0000
  0
LINE
  8
21
 10
36.4647
 20
23.8125
 30
0.0000
 11
37.0997
 21
23.8125
 31
0.0000
  0
LINE
  8
21
 10
35.1947
 20
23.8125
 30
0.0000
 11
36.4647
 21
24.4475
 31
0.0000
  0
LINE
  8
21
 10
35.1947
 20
24.4475
 30
0.0000
 11
35.1947
 21
23.8125
 31
0.0000
  0
LINE
  8
21
 10
35.1947
 20
23.8125
 30
0.0000
 11
35.1947
 21
23.1775
 31
0.0000
  0
INSERT
  8
21
  2
RECT
 10
33.6707
 20
23.8125
 30
0.0000
 41
0.5080
 42
2.5400
 43
1.0000
 50
0.0000
  0
INSERT
  8
21
  2
RECT
 10
31.9562
 20
23.8125
 30
0.0000
 41
1.3970
 42
0.5080
 43
1.0000
 50
0.0000
  0
INSERT
  8
21
  2
RECT
 10
38.4332
 20
23.8125
 30
0.0000
 41
1.3970
 42
0.5080
 43
1.0000
 50
0.0000
  0
LINE
  8
21
 10
93.9270
 20
27.3050
 30
0.0000
 11
88.8470
 21
27.3050
 31
0.0000
  0
LINE
  8
21
 10
88.8470
 20
24.7650
 30
0.0000
 11
93.9270
 21
24.7650
 31
0.0000
  0
LINE
  8
21
 10
88.8470
 20
27.3050
 30
0.0000
 11
88.8470
 21
24.7650
 31
0.0000
  0
LINE
  8
21
 10
93.9270
 20
24.7650
 30
0.0000
 11
93.9270
 21
27.3050
 31
0.0000
  0
LINE
  8
21
 10
92.0220
 20
26.0350
 30
0.0000
 11
91.3870
 21
26.0350
 31
0.0000
  0
LINE
  8
21
 10
90.1170
 20
25.4000
 30
0.0000
 11
90.1170
 21
26.6700
 31
0.0000
  0
LINE
  8
21
 10
90.1170
 20
26.6700
 30
0.0000
 11
91.3870
 21
26.0350
 31
0.0000
  0
LINE
  8
21
 10
90.1170
 20
26.0350
 30
0.0000
 11
89.4820
 21
26.0350
 31
0.0000
  0
LINE
  8
21
 10
91.3870
 20
26.0350
 30
0.0000
 11
90.1170
 21
25.4000
 31
0.0000
  0
LINE
  8
21
 10
91.3870
 20
25.4000
 30
0.0000
 11
91.3870
 21
26.0350
 31
0.0000
  0
LINE
  8
21
 10
91.3870
 20
26.0350
 30
0.0000
 11
91.3870
 21
26.6700
 31
0.0000
  0
INSERT
  8
21
  2
RECT
 10
92.9110
 20
26.0350
 30
0.0000
 41
0.5080
 42
2.5400
 43
1.0000
 50
180.0000
  0
INSERT
  8
21
  2
RECT
 10
94.6255
 20
26.0350
 30
0.0000
 41
1.3970
 42
0.5080
 43
1.0000
 50
180.0000
  0
INSERT
  8
21
  2
RECT
 10
88.1485
 20
26.0350
 30
0.0000
 41
1.3970
 42
0.5080
 43
1.0000
 50
180.0000
  0
LINE
  8
21
 10
94.6406
 20
32.3850
 30
0.0000
 11
89.5606
 21
32.3850
 31
0.0000
  0
LINE
  8
21
 10
89.5606
 20
29.8450
 30
0.0000
 11
94.6406
 21
29.8450
 31
0.0000
  0
LINE
  8
21
 10
89.5606
 20
32.3850
 30
0.0000
 11
89.5606
 21
29.8450
 31
0.0000
  0
LINE
  8
21
 10
94.6406
 20
29.8450
 30
0.0000
 11
94.6406
 21
32.3850
 31
0.0000
  0
LINE
  8
21
 10
92.7356
 20
31.1150
 30
0.0000
 11
92.1006
 21
31.1150
 31
0.0000
  0
LINE
  8
21
 10
90.8306
 20
30.4800
 30
0.0000
 11
90.8306
 21
31.7500
 31
0.0000
  0
LINE
  8
21
 10
90.8306
 20
31.7500
 30
0.0000
 11
92.1006
 21
31.1150
 31
0.0000
  0
LINE
  8
21
 10
90.8306
 20
31.1150
 30
0.0000
 11
90.1956
 21
31.1150
 31
0.0000
  0
LINE
  8
21
 10
92.1006
 20
31.1150
 30
0.0000
 11
90.8306
 21
30.4800
 31
0.0000
  0
LINE
  8
21
 10
92.1006
 20
30.4800
 30
0.0000
 11
92.1006
 21
31.1150
 31
0.0000
  0
LINE
  8
21
 10
92.1006
 20
31.1150
 30
0.0000
 11
92.1006
 21
31.7500
 31
0.0000
  0
INSERT
  8
21
  2
RECT
 10
93.6246
 20
31.1150
 30
0.0000
 41
0.5080
 42
2.5400
 43
1.0000
 50
180.0000
  0
INSERT
  8
21
  2
RECT
 10
95.3391
 20
31.1150
 30
0.0000
 41
1.3970
 42
0.5080
 43
1.0000
 50
180.0000
  0
INSERT
  8
21
  2
RECT
 10
88.8621
 20
31.1150
 30
0.0000
 41
1.3970
 42
0.5080
 43
1.0000
 50
180.0000
  0
LINE
  8
21
 10
70.6104
 20
32.3850
 30
0.0000
 11
68.7054
 21
32.3850
 31
0.0000
  0
LINE
  8
21
 10
66.1654
 20
32.3850
 30
0.0000
 11
64.2604
 21
32.3850
 31
0.0000
  0
LINE
  8
21
 10
64.2604
 20
32.3850
 30
0.0000
 11
64.2604
 21
22.2250
 31
0.0000
  0
LINE
  8
21
 10
64.2604
 20
22.2250
 30
0.0000
 11
70.6104
 21
22.2250
 31
0.0000
  0
LINE
  8
21
 10
70.6104
 20
22.2250
 30
0.0000
 11
70.6104
 21
32.3850
 31
0.0000
  0
ARC
  8
21
 10
67.4354
 20
32.3850
 30
0.0000
 40
1.2700
 50
180.0000
 51
0.0000
  0
LINE
  8
21
 10
35.0945
 20
12.7000
 30
0.0000
 11
34.5945
 21
12.7000
 31
0.0000
  0
LINE
  8
21
 10
32.5945
 20
12.7000
 30
0.0000
 11
32.0945
 21
12.7000
 31
0.0000
  0
LINE
  8
21
 10
35.4945
 20
14.5000
 30
0.0000
 11
31.6945
 21
14.5000
 31
0.0000
  0
ARC
  8
21
 10
33.5945
 20
12.7000
 30
0.0000
 40
2.6000
 50
270.0000
 51
337.3801
  0
ARC
  8
21
 10
33.5945
 20
12.7000
 30
0.0000
 40
2.6000
 50
202.6199
 51
270.0000
  0
ARC
  8
21
 10
33.5945
 20
12.7563
 30
0.0000
 40
2.5789
 50
137.4554
 51
158.5338
  0
ARC
  8
21
 10
33.5945
 20
12.7563
 30
0.0000
 40
2.5789
 50
21.4662
 51
42.5446
  0
LINE
  8
21
 10
7.2207
 20
38.0800
 30
0.0000
 11
7.2207
 21
35.5800
 31
0.0000
  0
LINE
  8
21
 10
7.2207
 20
35.5800
 30
0.0000
 11
12.2207
 21
35.5800
 31
0.0000
  0
LINE
  8
21
 10
12.2207
 20
35.5800
 30
0.0000
 11
12.2207
 21
38.0800
 31
0.0000
  0
LINE
  8
21
 10
12.2207
 20
38.0800
 30
0.0000
 11
7.2207
 21
38.0800
 31
0.0000
  0
LINE
  8
21
 10
10.0382
 20
36.8300
 30
0.0000
 11
10.0382
 21
37.3064
 31
0.0000
  0
LINE
  8
21
 10
10.0382
 20
36.8300
 30
0.0000
 11
9.4032
 21
36.3537
 31
0.0000
  0
LINE
  8
21
 10
9.4032
 20
36.3537
 30
0.0000
 11
9.4032
 21
36.8300
 31
0.0000
  0
LINE
  8
21
 10
9.4032
 20
36.8300
 30
0.0000
 11
9.4032
 21
37.3063
 31
0.0000
  0
LINE
  8
21
 10
9.4032
 20
37.3063
 30
0.0000
 11
10.0382
 21
36.8300
 31
0.0000
  0
LINE
  8
21
 10
10.0382
 20
36.3537
 30
0.0000
 11
10.0382
 21
36.8300
 31
0.0000
  0
LINE
  8
21
 10
10.0382
 20
36.8300
 30
0.0000
 11
10.1970
 21
36.8300
 31
0.0000
  0
LINE
  8
21
 10
9.4032
 20
36.8300
 30
0.0000
 11
9.2444
 21
36.8300
 31
0.0000
  0
LINE
  8
21
 10
13.5707
 20
38.0800
 30
0.0000
 11
13.5707
 21
35.5800
 31
0.0000
  0
LINE
  8
21
 10
13.5707
 20
35.5800
 30
0.0000
 11
18.5707
 21
35.5800
 31
0.0000
  0
LINE
  8
21
 10
18.5707
 20
35.5800
 30
0.0000
 11
18.5707
 21
38.0800
 31
0.0000
  0
LINE
  8
21
 10
18.5707
 20
38.0800
 30
0.0000
 11
13.5707
 21
38.0800
 31
0.0000
  0
LINE
  8
21
 10
16.3882
 20
36.8300
 30
0.0000
 11
16.3882
 21
37.3064
 31
0.0000
  0
LINE
  8
21
 10
16.3882
 20
36.8300
 30
0.0000
 11
15.7532
 21
36.3537
 31
0.0000
  0
LINE
  8
21
 10
15.7532
 20
36.3537
 30
0.0000
 11
15.7532
 21
36.8300
 31
0.0000
  0
LINE
  8
21
 10
15.7532
 20
36.8300
 30
0.0000
 11
15.7532
 21
37.3063
 31
0.0000
  0
LINE
  8
21
 10
15.7532
 20
37.3063
 30
0.0000
 11
16.3882
 21
36.8300
 31
0.0000
  0
LINE
  8
21
 10
16.3882
 20
36.3537
 30
0.0000
 11
16.3882
 21
36.8300
 31
0.0000
  0
LINE
  8
21
 10
16.3882
 20
36.8300
 30
0.0000
 11
16.5470
 21
36.8300
 31
0.0000
  0
LINE
  8
21
 10
15.7532
 20
36.8300
 30
0.0000
 11
15.5944
 21
36.8300
 31
0.0000
  0
LINE
  8
21
 10
31.3507
 20
38.0800
 30
0.0000
 11
31.3507
 21
35.5800
 31
0.0000
  0
LINE
  8
21
 10
31.3507
 20
35.5800
 30
0.0000
 11
36.3507
 21
35.5800
 31
0.0000
  0
LINE
  8
21
 10
36.3507
 20
35.5800
 30
0.0000
 11
36.3507
 21
38.0800
 31
0.0000
  0
LINE
  8
21
 10
36.3507
 20
38.0800
 30
0.0000
 11
31.3507
 21
38.0800
 31
0.0000
  0
LINE
  8
21
 10
34.1682
 20
36.8300
 30
0.0000
 11
34.1682
 21
37.3064
 31
0.0000
  0
LINE
  8
21
 10
34.1682
 20
36.8300
 30
0.0000
 11
33.5332
 21
36.3537
 31
0.0000
  0
LINE
  8
21
 10
33.5332
 20
36.3537
 30
0.0000
 11
33.5332
 21
36.8300
 31
0.0000
  0
LINE
  8
21
 10
33.5332
 20
36.8300
 30
0.0000
 11
33.5332
 21
37.3063
 31
0.0000
  0
LINE
  8
21
 10
33.5332
 20
37.3063
 30
0.0000
 11
34.1682
 21
36.8300
 31
0.0000
  0
LINE
  8
21
 10
34.1682
 20
36.3537
 30
0.0000
 11
34.1682
 21
36.8300
 31
0.0000
  0
LINE
  8
21
 10
34.1682
 20
36.8300
 30
0.0000
 11
34.3270
 21
36.8300
 31
0.0000
  0
LINE
  8
21
 10
33.5332
 20
36.8300
 30
0.0000
 11
33.3744
 21
36.8300
 31
0.0000
  0
LINE
  8
21
 10
37.7007
 20
38.0800
 30
0.0000
 11
37.7007
 21
35.5800
 31
0.0000
  0
LINE
  8
21
 10
37.7007
 20
35.5800
 30
0.0000
 11
42.7007
 21
35.5800
 31
0.0000
  0
LINE
  8
21
 10
42.7007
 20
35.5800
 30
0.0000
 11
42.7007
 21
38.0800
 31
0.0000
  0
LINE
  8
21
 10
42.7007
 20
38.0800
 30
0.0000
 11
37.7007
 21
38.0800
 31
0.0000
  0
LINE
  8
21
 10
40.5182
 20
36.8300
 30
0.0000
 11
40.5182
 21
37.3064
 31
0.0000
  0
LINE
  8
21
 10
40.5182
 20
36.8300
 30
0.0000
 11
39.8832
 21
36.3537
 31
0.0000
  0
LINE
  8
21
 10
39.8832
 20
36.3537
 30
0.0000
 11
39.8832
 21
36.8300
 31
0.0000
  0
LINE
  8
21
 10
39.8832
 20
36.8300
 30
0.0000
 11
39.8832
 21
37.3063
 31
0.0000
  0
LINE
  8
21
 10
39.8832
 20
37.3063
 30
0.0000
 11
40.5182
 21
36.8300
 31
0.0000
  0
LINE
  8
21
 10
40.5182
 20
36.3537
 30
0.0000
 11
40.5182
 21
36.8300
 31
0.0000
  0
LINE
  8
21
 10
40.5182
 20
36.8300
 30
0.0000
 11
40.6770
 21
36.8300
 31
0.0000
  0
LINE
  8
21
 10
39.8832
 20
36.8300
 30
0.0000
 11
39.7244
 21
36.8300
 31
0.0000
  0
LINE
  8
21
 10
53.0586
 20
28.9717
 30
0.0000
 11
50.5829
 21
29.3196
 31
0.0000
  0
LINE
  8
21
 10
50.5829
 20
29.3196
 30
0.0000
 11
49.8870
 21
24.3683
 31
0.0000
  0
LINE
  8
21
 10
49.8870
 20
24.3683
 30
0.0000
 11
52.3627
 21
24.0204
 31
0.0000
  0
LINE
  8
21
 10
52.3627
 20
24.0204
 30
0.0000
 11
53.0586
 21
28.9717
 31
0.0000
  0
LINE
  8
21
 10
51.4286
 20
26.3556
 30
0.0000
 11
51.9004
 21
26.2893
 31
0.0000
  0
LINE
  8
21
 10
51.4286
 20
26.3556
 30
0.0000
 11
51.0453
 21
27.0507
 31
0.0000
  0
LINE
  8
21
 10
51.0453
 20
27.0507
 30
0.0000
 11
51.5170
 21
26.9844
 31
0.0000
  0
LINE
  8
21
 10
51.5170
 20
26.9844
 30
0.0000
 11
51.9886
 21
26.9181
 31
0.0000
  0
LINE
  8
21
 10
51.9886
 20
26.9181
 30
0.0000
 11
51.4286
 21
26.3556
 31
0.0000
  0
LINE
  8
21
 10
50.9569
 20
26.4219
 30
0.0000
 11
51.4286
 21
26.3556
 31
0.0000
  0
LINE
  8
21
 10
51.4286
 20
26.3556
 30
0.0000
 11
51.4065
 21
26.1983
 31
0.0000
  0
LINE
  8
21
 10
51.5170
 20
26.9844
 30
0.0000
 11
51.5391
 21
27.1417
 31
0.0000
  0
LINE
  8
21
 10
51.2737
 20
16.2717
 30
0.0000
 11
48.7980
 21
16.6196
 31
0.0000
  0
LINE
  8
21
 10
48.7980
 20
16.6196
 30
0.0000
 11
48.1021
 21
11.6683
 31
0.0000
  0
LINE
  8
21
 10
48.1021
 20
11.6683
 30
0.0000
 11
50.5778
 21
11.3204
 31
0.0000
  0
LINE
  8
21
 10
50.5778
 20
11.3204
 30
0.0000
 11
51.2737
 21
16.2717
 31
0.0000
  0
LINE
  8
21
 10
49.6437
 20
13.6556
 30
0.0000
 11
50.1155
 21
13.5893
 31
0.0000
  0
LINE
  8
21
 10
49.6437
 20
13.6556
 30
0.0000
 11
49.2604
 21
14.3507
 31
0.0000
  0
LINE
  8
21
 10
49.2604
 20
14.3507
 30
0.0000
 11
49.7321
 21
14.2844
 31
0.0000
  0
LINE
  8
21
 10
49.7321
 20
14.2844
 30
0.0000
 11
50.2037
 21
14.2181
 31
0.0000
  0
LINE
  8
21
 10
50.2037
 20
14.2181
 30
0.0000
 11
49.6437
 21
13.6556
 31
0.0000
  0
LINE
  8
21
 10
49.1720
 20
13.7219
 30
0.0000
 11
49.6437
 21
13.6556
 31
0.0000
  0
LINE
  8
21
 10
49.6437
 20
13.6556
 30
0.0000
 11
49.6216
 21
13.4983
 31
0.0000
  0
LINE
  8
21
 10
49.7321
 20
14.2844
 30
0.0000
 11
49.7542
 21
14.4417
 31
0.0000
  0
LINE
  8
21
 10
63.1007
 20
38.0800
 30
0.0000
 11
63.1007
 21
35.5800
 31
0.0000
  0
LINE
  8
21
 10
63.1007
 20
35.5800
 30
0.0000
 11
68.1007
 21
35.5800
 31
0.0000
  0
LINE
  8
21
 10
68.1007
 20
35.5800
 30
0.0000
 11
68.1007
 21
38.0800
 31
0.0000
  0
LINE
  8
21
 10
68.1007
 20
38.0800
 30
0.0000
 11
63.1007
 21
38.0800
 31
0.0000
  0
LINE
  8
21
 10
65.9182
 20
36.8300
 30
0.0000
 11
65.9182
 21
37.3064
 31
0.0000
  0
LINE
  8
21
 10
65.9182
 20
36.8300
 30
0.0000
 11
65.2832
 21
36.3537
 31
0.0000
  0
LINE
  8
21
 10
65.2832
 20
36.3537
 30
0.0000
 11
65.2832
 21
36.8300
 31
0.0000
  0
LINE
  8
21
 10
65.2832
 20
36.8300
 30
0.0000
 11
65.2832
 21
37.3063
 31
0.0000
  0
LINE
  8
21
 10
65.2832
 20
37.3063
 30
0.0000
 11
65.9182
 21
36.8300
 31
0.0000
  0
LINE
  8
21
 10
65.9182
 20
36.3537
 30
0.0000
 11
65.9182
 21
36.8300
 31
0.0000
  0
LINE
  8
21
 10
65.9182
 20
36.8300
 30
0.0000
 11
66.0770
 21
36.8300
 31
0.0000
  0
LINE
  8
21
 10
65.2832
 20
36.8300
 30
0.0000
 11
65.1244
 21
36.8300
 31
0.0000
  0
LINE
  8
21
 10
69.4507
 20
38.0800
 30
0.0000
 11
69.4507
 21
35.5800
 31
0.0000
  0
LINE
  8
21
 10
69.4507
 20
35.5800
 30
0.0000
 11
74.4507
 21
35.5800
 31
0.0000
  0
LINE
  8
21
 10
74.4507
 20
35.5800
 30
0.0000
 11
74.4507
 21
38.0800
 31
0.0000
  0
LINE
  8
21
 10
74.4507
 20
38.0800
 30
0.0000
 11
69.4507
 21
38.0800
 31
0.0000
  0
LINE
  8
21
 10
72.2682
 20
36.8300
 30
0.0000
 11
72.2682
 21
37.3064
 31
0.0000
  0
LINE
  8
21
 10
72.2682
 20
36.8300
 30
0.0000
 11
71.6332
 21
36.3537
 31
0.0000
  0
LINE
  8
21
 10
71.6332
 20
36.3537
 30
0.0000
 11
71.6332
 21
36.8300
 31
0.0000
  0
LINE
  8
21
 10
71.6332
 20
36.8300
 30
0.0000
 11
71.6332
 21
37.3063
 31
0.0000
  0
LINE
  8
21
 10
71.6332
 20
37.3063
 30
0.0000
 11
72.2682
 21
36.8300
 31
0.0000
  0
LINE
  8
21
 10
72.2682
 20
36.3537
 30
0.0000
 11
72.2682
 21
36.8300
 31
0.0000
  0
LINE
  8
21
 10
72.2682
 20
36.8300
 30
0.0000
 11
72.4270
 21
36.8300
 31
0.0000
  0
LINE
  8
21
 10
71.6332
 20
36.8300
 30
0.0000
 11
71.4744
 21
36.8300
 31
0.0000
  0
LINE
  8
21
 10
87.2307
 20
38.0800
 30
0.0000
 11
87.2307
 21
35.5800
 31
0.0000
  0
LINE
  8
21
 10
87.2307
 20
35.5800
 30
0.0000
 11
92.2307
 21
35.5800
 31
0.0000
  0
LINE
  8
21
 10
92.2307
 20
35.5800
 30
0.0000
 11
92.2307
 21
38.0800
 31
0.0000
  0
LINE
  8
21
 10
92.2307
 20
38.0800
 30
0.0000
 11
87.2307
 21
38.0800
 31
0.0000
  0
LINE
  8
21
 10
90.0482
 20
36.8300
 30
0.0000
 11
90.0482
 21
37.3064
 31
0.0000
  0
LINE
  8
21
 10
90.0482
 20
36.8300
 30
0.0000
 11
89.4132
 21
36.3537
 31
0.0000
  0
LINE
  8
21
 10
89.4132
 20
36.3537
 30
0.0000
 11
89.4132
 21
36.8300
 31
0.0000
  0
LINE
  8
21
 10
89.4132
 20
36.8300
 30
0.0000
 11
89.4132
 21
37.3063
 31
0.0000
  0
LINE
  8
21
 10
89.4132
 20
37.3063
 30
0.0000
 11
90.0482
 21
36.8300
 31
0.0000
  0
LINE
  8
21
 10
90.0482
 20
36.3537
 30
0.0000
 11
90.0482
 21
36.8300
 31
0.0000
  0
LINE
  8
21
 10
90.0482
 20
36.8300
 30
0.0000
 11
90.2070
 21
36.8300
 31
0.0000
  0
LINE
  8
21
 10
89.4132
 20
36.8300
 30
0.0000
 11
89.2544
 21
36.8300
 31
0.0000
  0
LINE
  8
21
 10
93.5807
 20
38.0800
 30
0.0000
 11
93.5807
 21
35.5800
 31
0.0000
  0
LINE
  8
21
 10
93.5807
 20
35.5800
 30
0.0000
 11
98.5807
 21
35.5800
 31
0.0000
  0
LINE
  8
21
 10
98.5807
 20
35.5800
 30
0.0000
 11
98.5807
 21
38.0800
 31
0.0000
  0
LINE
  8
21
 10
98.5807
 20
38.0800
 30
0.0000
 11
93.5807
 21
38.0800
 31
0.0000
  0
LINE
  8
21
 10
96.3982
 20
36.8300
 30
0.0000
 11
96.3982
 21
37.3064
 31
0.0000
  0
LINE
  8
21
 10
96.3982
 20
36.8300
 30
0.0000
 11
95.7632
 21
36.3537
 31
0.0000
  0
LINE
  8
21
 10
95.7632
 20
36.3537
 30
0.0000
 11
95.7632
 21
36.8300
 31
0.0000
  0
LINE
  8
21
 10
95.7632
 20
36.8300
 30
0.0000
 11
95.7632
 21
37.3063
 31
0.0000
  0
LINE
  8
21
 10
95.7632
 20
37.3063
 30
0.0000
 11
96.3982
 21
36.8300
 31
0.0000
  0
LINE
  8
21
 10
96.3982
 20
36.3537
 30
0.0000
 11
96.3982
 21
36.8300
 31
0.0000
  0
LINE
  8
21
 10
96.3982
 20
36.8300
 30
0.0000
 11
96.5570
 21
36.8300
 31
0.0000
  0
LINE
  8
21
 10
95.7632
 20
36.8300
 30
0.0000
 11
95.6044
 21
36.8300
 31
0.0000
  0
LINE
  8
21
 10
2.5800
 20
5.0600
 30
0.0000
 11
2.5800
 21
2.5600
 31
0.0000
  0
LINE
  8
21
 10
2.5800
 20
2.5600
 30
0.0000
 11
7.5800
 21
2.5600
 31
0.0000
  0
LINE
  8
21
 10
7.5800
 20
2.5600
 30
0.0000
 11
7.5800
 21
5.0600
 31
0.0000
  0
LINE
  8
21
 10
7.5800
 20
5.0600
 30
0.0000
 11
2.5800
 21
5.0600
 31
0.0000
  0
LINE
  8
21
 10
5.3975
 20
3.8100
 30
0.0000
 11
5.3975
 21
4.2864
 31
0.0000
  0
LINE
  8
21
 10
5.3975
 20
3.8100
 30
0.0000
 11
4.7625
 21
3.3337
 31
0.0000
  0
LINE
  8
21
 10
4.7625
 20
3.3337
 30
0.0000
 11
4.7625
 21
3.8100
 31
0.0000
  0
LINE
  8
21
 10
4.7625
 20
3.8100
 30
0.0000
 11
4.7625
 21
4.2863
 31
0.0000
  0
LINE
  8
21
 10
4.7625
 20
4.2863
 30
0.0000
 11
5.3975
 21
3.8100
 31
0.0000
  0
LINE
  8
21
 10
5.3975
 20
3.3337
 30
0.0000
 11
5.3975
 21
3.8100
 31
0.0000
  0
LINE
  8
21
 10
5.3975
 20
3.8100
 30
0.0000
 11
5.5563
 21
3.8100
 31
0.0000
  0
LINE
  8
21
 10
4.7625
 20
3.8100
 30
0.0000
 11
4.6037
 21
3.8100
 31
0.0000
  0
LINE
  8
21
 10
8.9300
 20
5.0600
 30
0.0000
 11
8.9300
 21
2.5600
 31
0.0000
  0
LINE
  8
21
 10
8.9300
 20
2.5600
 30
0.0000
 11
13.9300
 21
2.5600
 31
0.0000
  0
LINE
  8
21
 10
13.9300
 20
2.5600
 30
0.0000
 11
13.9300
 21
5.0600
 31
0.0000
  0
LINE
  8
21
 10
13.9300
 20
5.0600
 30
0.0000
 11
8.9300
 21
5.0600
 31
0.0000
  0
LINE
  8
21
 10
11.7475
 20
3.8100
 30
0.0000
 11
11.7475
 21
4.2864
 31
0.0000
  0
LINE
  8
21
 10
11.7475
 20
3.8100
 30
0.0000
 11
11.1125
 21
3.3337
 31
0.0000
  0
LINE
  8
21
 10
11.1125
 20
3.3337
 30
0.0000
 11
11.1125
 21
3.8100
 31
0.0000
  0
LINE
  8
21
 10
11.1125
 20
3.8100
 30
0.0000
 11
11.1125
 21
4.2863
 31
0.0000
  0
LINE
  8
21
 10
11.1125
 20
4.2863
 30
0.0000
 11
11.7475
 21
3.8100
 31
0.0000
  0
LINE
  8
21
 10
11.7475
 20
3.3337
 30
0.0000
 11
11.7475
 21
3.8100
 31
0.0000
  0
LINE
  8
21
 10
11.7475
 20
3.8100
 30
0.0000
 11
11.9063
 21
3.8100
 31
0.0000
  0
LINE
  8
21
 10
11.1125
 20
3.8100
 30
0.0000
 11
10.9537
 21
3.8100
 31
0.0000
  0
LINE
  8
21
 10
26.7100
 20
5.0600
 30
0.0000
 11
26.7100
 21
2.5600
 31
0.0000
  0
LINE
  8
21
 10
26.7100
 20
2.5600
 30
0.0000
 11
31.7100
 21
2.5600
 31
0.0000
  0
LINE
  8
21
 10
31.7100
 20
2.5600
 30
0.0000
 11
31.7100
 21
5.0600
 31
0.0000
  0
LINE
  8
21
 10
31.7100
 20
5.0600
 30
0.0000
 11
26.7100
 21
5.0600
 31
0.0000
  0
LINE
  8
21
 10
29.5275
 20
3.8100
 30
0.0000
 11
29.5275
 21
4.2864
 31
0.0000
  0
LINE
  8
21
 10
29.5275
 20
3.8100
 30
0.0000
 11
28.8925
 21
3.3337
 31
0.0000
  0
LINE
  8
21
 10
28.8925
 20
3.3337
 30
0.0000
 11
28.8925
 21
3.8100
 31
0.0000
  0
LINE
  8
21
 10
28.8925
 20
3.8100
 30
0.0000
 11
28.8925
 21
4.2863
 31
0.0000
  0
LINE
  8
21
 10
28.8925
 20
4.2863
 30
0.0000
 11
29.5275
 21
3.8100
 31
0.0000
  0
LINE
  8
21
 10
29.5275
 20
3.3337
 30
0.0000
 11
29.5275
 21
3.8100
 31
0.0000
  0
LINE
  8
21
 10
29.5275
 20
3.8100
 30
0.0000
 11
29.6863
 21
3.8100
 31
0.0000
  0
LINE
  8
21
 10
28.8925
 20
3.8100
 30
0.0000
 11
28.7337
 21
3.8100
 31
0.0000
  0
LINE
  8
21
 10
33.0600
 20
5.0600
 30
0.0000
 11
33.0600
 21
2.5600
 31
0.0000
  0
LINE
  8
21
 10
33.0600
 20
2.5600
 30
0.0000
 11
38.0600
 21
2.5600
 31
0.0000
  0
LINE
  8
21
 10
38.0600
 20
2.5600
 30
0.0000
 11
38.0600
 21
5.0600
 31
0.0000
  0
LINE
  8
21
 10
38.0600
 20
5.0600
 30
0.0000
 11
33.0600
 21
5.0600
 31
0.0000
  0
LINE
  8
21
 10
35.8775
 20
3.8100
 30
0.0000
 11
35.8775
 21
4.2864
 31
0.0000
  0
LINE
  8
21
 10
35.8775
 20
3.8100
 30
0.0000
 11
35.2425
 21
3.3337
 31
0.0000
  0
LINE
  8
21
 10
35.2425
 20
3.3337
 30
0.0000
 11
35.2425
 21
3.8100
 31
0.0000
  0
LINE
  8
21
 10
35.2425
 20
3.8100
 30
0.0000
 11
35.2425
 21
4.2863
 31
0.0000
  0
LINE
  8
21
 10
35.2425
 20
4.2863
 30
0.0000
 11
35.8775
 21
3.8100
 31
0.0000
  0
LINE
  8
21
 10
35.8775
 20
3.3337
 30
0.0000
 11
35.8775
 21
3.8100
 31
0.0000
  0
LINE
  8
21
 10
35.8775
 20
3.8100
 30
0.0000
 11
36.0363
 21
3.8100
 31
0.0000
  0
LINE
  8
21
 10
35.2425
 20
3.8100
 30
0.0000
 11
35.0837
 21
3.8100
 31
0.0000
  0
LINE
  8
21
 10
58.4600
 20
5.0600
 30
0.0000
 11
58.4600
 21
2.5600
 31
0.0000
  0
LINE
  8
21
 10
58.4600
 20
2.5600
 30
0.0000
 11
63.4600
 21
2.5600
 31
0.0000
  0
LINE
  8
21
 10
63.4600
 20
2.5600
 30
0.0000
 11
63.4600
 21
5.0600
 31
0.0000
  0
LINE
  8
21
 10
63.4600
 20
5.0600
 30
0.0000
 11
58.4600
 21
5.0600
 31
0.0000
  0
LINE
  8
21
 10
61.2775
 20
3.8100
 30
0.0000
 11
61.2775
 21
4.2864
 31
0.0000
  0
LINE
  8
21
 10
61.2775
 20
3.8100
 30
0.0000
 11
60.6425
 21
3.3337
 31
0.0000
  0
LINE
  8
21
 10
60.6425
 20
3.3337
 30
0.0000
 11
60.6425
 21
3.8100
 31
0.0000
  0
LINE
  8
21
 10
60.6425
 20
3.8100
 30
0.0000
 11
60.6425
 21
4.2863
 31
0.0000
  0
LINE
  8
21
 10
60.6425
 20
4.2863
 30
0.0000
 11
61.2775
 21
3.8100
 31
0.0000
  0
LINE
  8
21
 10
61.2775
 20
3.3337
 30
0.0000
 11
61.2775
 21
3.8100
 31
0.0000
  0
LINE
  8
21
 10
61.2775
 20
3.8100
 30
0.0000
 11
61.4363
 21
3.8100
 31
0.0000
  0
LINE
  8
21
 10
60.6425
 20
3.8100
 30
0.0000
 11
60.4837
 21
3.8100
 31
0.0000
  0
LINE
  8
21
 10
64.8100
 20
5.0600
 30
0.0000
 11
64.8100
 21
2.5600
 31
0.0000
  0
LINE
  8
21
 10
64.8100
 20
2.5600
 30
0.0000
 11
69.8100
 21
2.5600
 31
0.0000
  0
LINE
  8
21
 10
69.8100
 20
2.5600
 30
0.0000
 11
69.8100
 21
5.0600
 31
0.0000
  0
LINE
  8
21
 10
69.8100
 20
5.0600
 30
0.0000
 11
64.8100
 21
5.0600
 31
0.0000
  0
LINE
  8
21
 10
67.6275
 20
3.8100
 30
0.0000
 11
67.6275
 21
4.2864
 31
0.0000
  0
LINE
  8
21
 10
67.6275
 20
3.8100
 30
0.0000
 11
66.9925
 21
3.3337
 31
0.0000
  0
LINE
  8
21
 10
66.9925
 20
3.3337
 30
0.0000
 11
66.9925
 21
3.8100
 31
0.0000
  0
LINE
  8
21
 10
66.9925
 20
3.8100
 30
0.0000
 11
66.9925
 21
4.2863
 31
0.0000
  0
LINE
  8
21
 10
66.9925
 20
4.2863
 30
0.0000
 11
67.6275
 21
3.8100
 31
0.0000
  0
LINE
  8
21
 10
67.6275
 20
3.3337
 30
0.0000
 11
67.6275
 21
3.8100
 31
0.0000
  0
LINE
  8
21
 10
67.6275
 20
3.8100
 30
0.0000
 11
67.7863
 21
3.8100
 31
0.0000
  0
LINE
  8
21
 10
66.9925
 20
3.8100
 30
0.0000
 11
66.8337
 21
3.8100
 31
0.0000
  0
LINE
  8
21
 10
82.5900
 20
5.0600
 30
0.0000
 11
82.5900
 21
2.5600
 31
0.0000
  0
LINE
  8
21
 10
82.5900
 20
2.5600
 30
0.0000
 11
87.5900
 21
2.5600
 31
0.0000
  0
LINE
  8
21
 10
87.5900
 20
2.5600
 30
0.0000
 11
87.5900
 21
5.0600
 31
0.0000
  0
LINE
  8
21
 10
87.5900
 20
5.0600
 30
0.0000
 11
82.5900
 21
5.0600
 31
0.0000
  0
LINE
  8
21
 10
85.4075
 20
3.8100
 30
0.0000
 11
85.4075
 21
4.2864
 31
0.0000
  0
LINE
  8
21
 10
85.4075
 20
3.8100
 30
0.0000
 11
84.7725
 21
3.3337
 31
0.0000
  0
LINE
  8
21
 10
84.7725
 20
3.3337
 30
0.0000
 11
84.7725
 21
3.8100
 31
0.0000
  0
LINE
  8
21
 10
84.7725
 20
3.8100
 30
0.0000
 11
84.7725
 21
4.2863
 31
0.0000
  0
LINE
  8
21
 10
84.7725
 20
4.2863
 30
0.0000
 11
85.4075
 21
3.8100
 31
0.0000
  0
LINE
  8
21
 10
85.4075
 20
3.3337
 30
0.0000
 11
85.4075
 21
3.8100
 31
0.0000
  0
LINE
  8
21
 10
85.4075
 20
3.8100
 30
0.0000
 11
85.5663
 21
3.8100
 31
0.0000
  0
LINE
  8
21
 10
84.7725
 20
3.8100
 30
0.0000
 11
84.6137
 21
3.8100
 31
0.0000
  0
LINE
  8
21
 10
88.9400
 20
5.0600
 30
0.0000
 11
88.9400
 21
2.5600
 31
0.0000
  0
LINE
  8
21
 10
88.9400
 20
2.5600
 30
0.0000
 11
93.9400
 21
2.5600
 31
0.0000
  0
LINE
  8
21
 10
93.9400
 20
2.5600
 30
0.0000
 11
93.9400
 21
5.0600
 31
0.0000
  0
LINE
  8
21
 10
93.9400
 20
5.0600
 30
0.0000
 11
88.9400
 21
5.0600
 31
0.0000
  0
LINE
  8
21
 10
91.7575
 20
3.8100
 30
0.0000
 11
91.7575
 21
4.2864
 31
0.0000
  0
LINE
  8
21
 10
91.7575
 20
3.8100
 30
0.0000
 11
91.1225
 21
3.3337
 31
0.0000
  0
LINE
  8
21
 10
91.1225
 20
3.3337
 30
0.0000
 11
91.1225
 21
3.8100
 31
0.0000
  0
LINE
  8
21
 10
91.1225
 20
3.8100
 30
0.0000
 11
91.1225
 21
4.2863
 31
0.0000
  0
LINE
  8
21
 10
91.1225
 20
4.2863
 30
0.0000
 11
91.7575
 21
3.8100
 31
0.0000
  0
LINE
  8
21
 10
91.7575
 20
3.3337
 30
0.0000
 11
91.7575
 21
3.8100
 31
0.0000
  0
LINE
  8
21
 10
91.7575
 20
3.8100
 30
0.0000
 11
91.9163
 21
3.8100
 31
0.0000
  0
LINE
  8
21
 10
91.1225
 20
3.8100
 30
0.0000
 11
90.9637
 21
3.8100
 31
0.0000
  0
LINE
  8
21
 10
5.5125
 20
34.0517
 30
0.0000
 11
3.0368
 21
34.3996
 31
0.0000
  0
LINE
  8
21
 10
3.0368
 20
34.3996
 30
0.0000
 11
2.3409
 21
29.4483
 31
0.0000
  0
LINE
  8
21
 10
2.3409
 20
29.4483
 30
0.0000
 11
4.8166
 21
29.1004
 31
0.0000
  0
LINE
  8
21
 10
4.8166
 20
29.1004
 30
0.0000
 11
5.5125
 21
34.0517
 31
0.0000
  0
LINE
  8
21
 10
3.8825
 20
31.4356
 30
0.0000
 11
4.3543
 21
31.3693
 31
0.0000
  0
LINE
  8
21
 10
3.8825
 20
31.4356
 30
0.0000
 11
3.4992
 21
32.1307
 31
0.0000
  0
LINE
  8
21
 10
3.4992
 20
32.1307
 30
0.0000
 11
3.9709
 21
32.0644
 31
0.0000
  0
LINE
  8
21
 10
3.9709
 20
32.0644
 30
0.0000
 11
4.4425
 21
31.9981
 31
0.0000
  0
LINE
  8
21
 10
4.4425
 20
31.9981
 30
0.0000
 11
3.8825
 21
31.4356
 31
0.0000
  0
LINE
  8
21
 10
3.4108
 20
31.5019
 30
0.0000
 11
3.8825
 21
31.4356
 31
0.0000
  0
LINE
  8
21
 10
3.8825
 20
31.4356
 30
0.0000
 11
3.8604
 21
31.2783
 31
0.0000
  0
LINE
  8
21
 10
3.9709
 20
32.0644
 30
0.0000
 11
3.9930
 21
32.2217
 31
0.0000
  0
LINE
  8
21
 10
4.6201
 20
27.7017
 30
0.0000
 11
2.1444
 21
28.0496
 31
0.0000
  0
LINE
  8
21
 10
2.1444
 20
28.0496
 30
0.0000
 11
1.4485
 21
23.0983
 31
0.0000
  0
LINE
  8
21
 10
1.4485
 20
23.0983
 30
0.0000
 11
3.9242
 21
22.7504
 31
0.0000
  0
LINE
  8
21
 10
3.9242
 20
22.7504
 30
0.0000
 11
4.6201
 21
27.7017
 31
0.0000
  0
LINE
  8
21
 10
2.9901
 20
25.0856
 30
0.0000
 11
3.4619
 21
25.0193
 31
0.0000
  0
LINE
  8
21
 10
2.9901
 20
25.0856
 30
0.0000
 11
2.6068
 21
25.7807
 31
0.0000
  0
LINE
  8
21
 10
2.6068
 20
25.7807
 30
0.0000
 11
3.0785
 21
25.7144
 31
0.0000
  0
LINE
  8
21
 10
3.0785
 20
25.7144
 30
0.0000
 11
3.5502
 21
25.6481
 31
0.0000
  0
LINE
  8
21
 10
3.5502
 20
25.6481
 30
0.0000
 11
2.9901
 21
25.0856
 31
0.0000
  0
LINE
  8
21
 10
2.5184
 20
25.1519
 30
0.0000
 11
2.9901
 21
25.0856
 31
0.0000
  0
LINE
  8
21
 10
2.9901
 20
25.0856
 30
0.0000
 11
2.9680
 21
24.9283
 31
0.0000
  0
LINE
  8
21
 10
3.0785
 20
25.7144
 30
0.0000
 11
3.1006
 21
25.8717
 31
0.0000
  0
LINE
  8
21
 10
22.0225
 20
34.0517
 30
0.0000
 11
19.5468
 21
34.3996
 31
0.0000
  0
LINE
  8
21
 10
19.5468
 20
34.3996
 30
0.0000
 11
18.8509
 21
29.4483
 31
0.0000
  0
LINE
  8
21
 10
18.8509
 20
29.4483
 30
0.0000
 11
21.3266
 21
29.1004
 31
0.0000
  0
LINE
  8
21
 10
21.3266
 20
29.1004
 30
0.0000
 11
22.0225
 21
34.0517
 31
0.0000
  0
LINE
  8
21
 10
20.3925
 20
31.4356
 30
0.0000
 11
20.8643
 21
31.3693
 31
0.0000
  0
LINE
  8
21
 10
20.3925
 20
31.4356
 30
0.0000
 11
20.0092
 21
32.1307
 31
0.0000
  0
LINE
  8
21
 10
20.0092
 20
32.1307
 30
0.0000
 11
20.4809
 21
32.0644
 31
0.0000
  0
LINE
  8
21
 10
20.4809
 20
32.0644
 30
0.0000
 11
20.9526
 21
31.9981
 31
0.0000
  0
LINE
  8
21
 10
20.9526
 20
31.9981
 30
0.0000
 11
20.3925
 21
31.4356
 31
0.0000
  0
LINE
  8
21
 10
19.9208
 20
31.5019
 30
0.0000
 11
20.3925
 21
31.4356
 31
0.0000
  0
LINE
  8
21
 10
20.3925
 20
31.4356
 30
0.0000
 11
20.3704
 21
31.2783
 31
0.0000
  0
LINE
  8
21
 10
20.4809
 20
32.0644
 30
0.0000
 11
20.5030
 21
32.2217
 31
0.0000
  0
LINE
  8
21
 10
21.1301
 20
27.7017
 30
0.0000
 11
18.6544
 21
28.0496
 31
0.0000
  0
LINE
  8
21
 10
18.6544
 20
28.0496
 30
0.0000
 11
17.9585
 21
23.0983
 31
0.0000
  0
LINE
  8
21
 10
17.9585
 20
23.0983
 30
0.0000
 11
20.4342
 21
22.7504
 31
0.0000
  0
LINE
  8
21
 10
20.4342
 20
22.7504
 30
0.0000
 11
21.1301
 21
27.7017
 31
0.0000
  0
LINE
  8
21
 10
19.5001
 20
25.0856
 30
0.0000
 11
19.9719
 21
25.0193
 31
0.0000
  0
LINE
  8
21
 10
19.5001
 20
25.0856
 30
0.0000
 11
19.1168
 21
25.7807
 31
0.0000
  0
LINE
  8
21
 10
19.1168
 20
25.7807
 30
0.0000
 11
19.5885
 21
25.7144
 31
0.0000
  0
LINE
  8
21
 10
19.5885
 20
25.7144
 30
0.0000
 11
20.0602
 21
25.6481
 31
0.0000
  0
LINE
  8
21
 10
20.0602
 20
25.6481
 30
0.0000
 11
19.5001
 21
25.0856
 31
0.0000
  0
LINE
  8
21
 10
19.0284
 20
25.1519
 30
0.0000
 11
19.5001
 21
25.0856
 31
0.0000
  0
LINE
  8
21
 10
19.5001
 20
25.0856
 30
0.0000
 11
19.4780
 21
24.9283
 31
0.0000
  0
LINE
  8
21
 10
19.5885
 20
25.7144
 30
0.0000
 11
19.6106
 21
25.8717
 31
0.0000
  0
LINE
  8
21
 10
29.6425
 20
34.0517
 30
0.0000
 11
27.1668
 21
34.3996
 31
0.0000
  0
LINE
  8
21
 10
27.1668
 20
34.3996
 30
0.0000
 11
26.4709
 21
29.4483
 31
0.0000
  0
LINE
  8
21
 10
26.4709
 20
29.4483
 30
0.0000
 11
28.9466
 21
29.1004
 31
0.0000
  0
LINE
  8
21
 10
28.9466
 20
29.1004
 30
0.0000
 11
29.6425
 21
34.0517
 31
0.0000
  0
LINE
  8
21
 10
28.0125
 20
31.4356
 30
0.0000
 11
28.4843
 21
31.3693
 31
0.0000
  0
LINE
  8
21
 10
28.0125
 20
31.4356
 30
0.0000
 11
27.6292
 21
32.1307
 31
0.0000
  0
LINE
  8
21
 10
27.6292
 20
32.1307
 30
0.0000
 11
28.1009
 21
32.0644
 31
0.0000
  0
LINE
  8
21
 10
28.1009
 20
32.0644
 30
0.0000
 11
28.5725
 21
31.9981
 31
0.0000
  0
LINE
  8
21
 10
28.5725
 20
31.9981
 30
0.0000
 11
28.0125
 21
31.4356
 31
0.0000
  0
LINE
  8
21
 10
27.5408
 20
31.5019
 30
0.0000
 11
28.0125
 21
31.4356
 31
0.0000
  0
LINE
  8
21
 10
28.0125
 20
31.4356
 30
0.0000
 11
27.9904
 21
31.2783
 31
0.0000
  0
LINE
  8
21
 10
28.1009
 20
32.0644
 30
0.0000
 11
28.1230
 21
32.2217
 31
0.0000
  0
LINE
  8
21
 10
28.7501
 20
27.7017
 30
0.0000
 11
26.2744
 21
28.0496
 31
0.0000
  0
LINE
  8
21
 10
26.2744
 20
28.0496
 30
0.0000
 11
25.5785
 21
23.0983
 31
0.0000
  0
LINE
  8
21
 10
25.5785
 20
23.0983
 30
0.0000
 11
28.0542
 21
22.7504
 31
0.0000
  0
LINE
  8
21
 10
28.0542
 20
22.7504
 30
0.0000
 11
28.7501
 21
27.7017
 31
0.0000
  0
LINE
  8
21
 10
27.1201
 20
25.0856
 30
0.0000
 11
27.5919
 21
25.0193
 31
0.0000
  0
LINE
  8
21
 10
27.1201
 20
25.0856
 30
0.0000
 11
26.7368
 21
25.7807
 31
0.0000
  0
LINE
  8
21
 10
26.7368
 20
25.7807
 30
0.0000
 11
27.2085
 21
25.7144
 31
0.0000
  0
LINE
  8
21
 10
27.2085
 20
25.7144
 30
0.0000
 11
27.6802
 21
25.6481
 31
0.0000
  0
LINE
  8
21
 10
27.6802
 20
25.6481
 30
0.0000
 11
27.1201
 21
25.0856
 31
0.0000
  0
LINE
  8
21
 10
26.6484
 20
25.1519
 30
0.0000
 11
27.1201
 21
25.0856
 31
0.0000
  0
LINE
  8
21
 10
27.1201
 20
25.0856
 30
0.0000
 11
27.0980
 21
24.9283
 31
0.0000
  0
LINE
  8
21
 10
27.2085
 20
25.7144
 30
0.0000
 11
27.2306
 21
25.8717
 31
0.0000
  0
LINE
  8
21
 10
46.1525
 20
34.0517
 30
0.0000
 11
43.6768
 21
34.3996
 31
0.0000
  0
LINE
  8
21
 10
43.6768
 20
34.3996
 30
0.0000
 11
42.9809
 21
29.4483
 31
0.0000
  0
LINE
  8
21
 10
42.9809
 20
29.4483
 30
0.0000
 11
45.4566
 21
29.1004
 31
0.0000
  0
LINE
  8
21
 10
45.4566
 20
29.1004
 30
0.0000
 11
46.1525
 21
34.0517
 31
0.0000
  0
LINE
  8
21
 10
44.5225
 20
31.4356
 30
0.0000
 11
44.9943
 21
31.3693
 31
0.0000
  0
LINE
  8
21
 10
44.5225
 20
31.4356
 30
0.0000
 11
44.1392
 21
32.1307
 31
0.0000
  0
LINE
  8
21
 10
44.1392
 20
32.1307
 30
0.0000
 11
44.6109
 21
32.0644
 31
0.0000
  0
LINE
  8
21
 10
44.6109
 20
32.0644
 30
0.0000
 11
45.0826
 21
31.9981
 31
0.0000
  0
LINE
  8
21
 10
45.0826
 20
31.9981
 30
0.0000
 11
44.5225
 21
31.4356
 31
0.0000
  0
LINE
  8
21
 10
44.0508
 20
31.5019
 30
0.0000
 11
44.5225
 21
31.4356
 31
0.0000
  0
LINE
  8
21
 10
44.5225
 20
31.4356
 30
0.0000
 11
44.5004
 21
31.2783
 31
0.0000
  0
LINE
  8
21
 10
44.6109
 20
32.0644
 30
0.0000
 11
44.6330
 21
32.2217
 31
0.0000
  0
LINE
  8
21
 10
45.2601
 20
27.7017
 30
0.0000
 11
42.7844
 21
28.0496
 31
0.0000
  0
LINE
  8
21
 10
42.7844
 20
28.0496
 30
0.0000
 11
42.0885
 21
23.0983
 31
0.0000
  0
LINE
  8
21
 10
42.0885
 20
23.0983
 30
0.0000
 11
44.5642
 21
22.7504
 31
0.0000
  0
LINE
  8
21
 10
44.5642
 20
22.7504
 30
0.0000
 11
45.2601
 21
27.7017
 31
0.0000
  0
LINE
  8
21
 10
43.6301
 20
25.0856
 30
0.0000
 11
44.1019
 21
25.0193
 31
0.0000
  0
LINE
  8
21
 10
43.6301
 20
25.0856
 30
0.0000
 11
43.2468
 21
25.7807
 31
0.0000
  0
LINE
  8
21
 10
43.2468
 20
25.7807
 30
0.0000
 11
43.7185
 21
25.7144
 31
0.0000
  0
LINE
  8
21
 10
43.7185
 20
25.7144
 30
0.0000
 11
44.1902
 21
25.6481
 31
0.0000
  0
LINE
  8
21
 10
44.1902
 20
25.6481
 30
0.0000
 11
43.6301
 21
25.0856
 31
0.0000
  0
LINE
  8
21
 10
43.1584
 20
25.1519
 30
0.0000
 11
43.6301
 21
25.0856
 31
0.0000
  0
LINE
  8
21
 10
43.6301
 20
25.0856
 30
0.0000
 11
43.6080
 21
24.9283
 31
0.0000
  0
LINE
  8
21
 10
43.7185
 20
25.7144
 30
0.0000
 11
43.7406
 21
25.8717
 31
0.0000
  0
LINE
  8
21
 10
61.3925
 20
34.0517
 30
0.0000
 11
58.9168
 21
34.3996
 31
0.0000
  0
LINE
  8
21
 10
58.9168
 20
34.3996
 30
0.0000
 11
58.2209
 21
29.4483
 31
0.0000
  0
LINE
  8
21
 10
58.2209
 20
29.4483
 30
0.0000
 11
60.6966
 21
29.1004
 31
0.0000
  0
LINE
  8
21
 10
60.6966
 20
29.1004
 30
0.0000
 11
61.3925
 21
34.0517
 31
0.0000
  0
LINE
  8
21
 10
59.7625
 20
31.4356
 30
0.0000
 11
60.2343
 21
31.3693
 31
0.0000
  0
LINE
  8
21
 10
59.7625
 20
31.4356
 30
0.0000
 11
59.3792
 21
32.1307
 31
0.0000
  0
LINE
  8
21
 10
59.3792
 20
32.1307
 30
0.0000
 11
59.8509
 21
32.0644
 31
0.0000
  0
LINE
  8
21
 10
59.8509
 20
32.0644
 30
0.0000
 11
60.3225
 21
31.9981
 31
0.0000
  0
LINE
  8
21
 10
60.3225
 20
31.9981
 30
0.0000
 11
59.7625
 21
31.4356
 31
0.0000
  0
LINE
  8
21
 10
59.2908
 20
31.5019
 30
0.0000
 11
59.7625
 21
31.4356
 31
0.0000
  0
LINE
  8
21
 10
59.7625
 20
31.4356
 30
0.0000
 11
59.7404
 21
31.2783
 31
0.0000
  0
LINE
  8
21
 10
59.8509
 20
32.0644
 30
0.0000
 11
59.8730
 21
32.2217
 31
0.0000
  0
LINE
  8
21
 10
60.5001
 20
27.7017
 30
0.0000
 11
58.0244
 21
28.0496
 31
0.0000
  0
LINE
  8
21
 10
58.0244
 20
28.0496
 30
0.0000
 11
57.3285
 21
23.0983
 31
0.0000
  0
LINE
  8
21
 10
57.3285
 20
23.0983
 30
0.0000
 11
59.8042
 21
22.7504
 31
0.0000
  0
LINE
  8
21
 10
59.8042
 20
22.7504
 30
0.0000
 11
60.5001
 21
27.7017
 31
0.0000
  0
LINE
  8
21
 10
58.8701
 20
25.0856
 30
0.0000
 11
59.3419
 21
25.0193
 31
0.0000
  0
LINE
  8
21
 10
58.8701
 20
25.0856
 30
0.0000
 11
58.4868
 21
25.7807
 31
0.0000
  0
LINE
  8
21
 10
58.4868
 20
25.7807
 30
0.0000
 11
58.9585
 21
25.7144
 31
0.0000
  0
LINE
  8
21
 10
58.9585
 20
25.7144
 30
0.0000
 11
59.4302
 21
25.6481
 31
0.0000
  0
LINE
  8
21
 10
59.4302
 20
25.6481
 30
0.0000
 11
58.8701
 21
25.0856
 31
0.0000
  0
LINE
  8
21
 10
58.3984
 20
25.1519
 30
0.0000
 11
58.8701
 21
25.0856
 31
0.0000
  0
LINE
  8
21
 10
58.8701
 20
25.0856
 30
0.0000
 11
58.8480
 21
24.9283
 31
0.0000
  0
LINE
  8
21
 10
58.9585
 20
25.7144
 30
0.0000
 11
58.9806
 21
25.8717
 31
0.0000
  0
LINE
  8
21
 10
77.9025
 20
34.0517
 30
0.0000
 11
75.4268
 21
34.3996
 31
0.0000
  0
LINE
  8
21
 10
75.4268
 20
34.3996
 30
0.0000
 11
74.7309
 21
29.4483
 31
0.0000
  0
LINE
  8
21
 10
74.7309
 20
29.4483
 30
0.0000
 11
77.2066
 21
29.1004
 31
0.0000
  0
LINE
  8
21
 10
77.2066
 20
29.1004
 30
0.0000
 11
77.9025
 21
34.0517
 31
0.0000
  0
LINE
  8
21
 10
76.2725
 20
31.4356
 30
0.0000
 11
76.7443
 21
31.3693
 31
0.0000
  0
LINE
  8
21
 10
76.2725
 20
31.4356
 30
0.0000
 11
75.8892
 21
32.1307
 31
0.0000
  0
LINE
  8
21
 10
75.8892
 20
32.1307
 30
0.0000
 11
76.3609
 21
32.0644
 31
0.0000
  0
LINE
  8
21
 10
76.3609
 20
32.0644
 30
0.0000
 11
76.8325
 21
31.9981
 31
0.0000
  0
LINE
  8
21
 10
76.8325
 20
31.9981
 30
0.0000
 11
76.2725
 21
31.4356
 31
0.0000
  0
LINE
  8
21
 10
75.8008
 20
31.5019
 30
0.0000
 11
76.2725
 21
31.4356
 31
0.0000
  0
LINE
  8
21
 10
76.2725
 20
31.4356
 30
0.0000
 11
76.2504
 21
31.2783
 31
0.0000
  0
LINE
  8
21
 10
76.3609
 20
32.0644
 30
0.0000
 11
76.3830
 21
32.2217
 31
0.0000
  0
LINE
  8
21
 10
77.0101
 20
27.7017
 30
0.0000
 11
74.5344
 21
28.0496
 31
0.0000
  0
LINE
  8
21
 10
74.5344
 20
28.0496
 30
0.0000
 11
73.8385
 21
23.0983
 31
0.0000
  0
LINE
  8
21
 10
73.8385
 20
23.0983
 30
0.0000
 11
76.3142
 21
22.7504
 31
0.0000
  0
LINE
  8
21
 10
76.3142
 20
22.7504
 30
0.0000
 11
77.0101
 21
27.7017
 31
0.0000
  0
LINE
  8
21
 10
75.3801
 20
25.0856
 30
0.0000
 11
75.8519
 21
25.0193
 31
0.0000
  0
LINE
  8
21
 10
75.3801
 20
25.0856
 30
0.0000
 11
74.9968
 21
25.7807
 31
0.0000
  0
LINE
  8
21
 10
74.9968
 20
25.7807
 30
0.0000
 11
75.4685
 21
25.7144
 31
0.0000
  0
LINE
  8
21
 10
75.4685
 20
25.7144
 30
0.0000
 11
75.9402
 21
25.6481
 31
0.0000
  0
LINE
  8
21
 10
75.9402
 20
25.6481
 30
0.0000
 11
75.3801
 21
25.0856
 31
0.0000
  0
LINE
  8
21
 10
74.9084
 20
25.1519
 30
0.0000
 11
75.3801
 21
25.0856
 31
0.0000
  0
LINE
  8
21
 10
75.3801
 20
25.0856
 30
0.0000
 11
75.3580
 21
24.9283
 31
0.0000
  0
LINE
  8
21
 10
75.4685
 20
25.7144
 30
0.0000
 11
75.4906
 21
25.8717
 31
0.0000
  0
LINE
  8
21
 10
85.5225
 20
34.0517
 30
0.0000
 11
83.0468
 21
34.3996
 31
0.0000
  0
LINE
  8
21
 10
83.0468
 20
34.3996
 30
0.0000
 11
82.3509
 21
29.4483
 31
0.0000
  0
LINE
  8
21
 10
82.3509
 20
29.4483
 30
0.0000
 11
84.8266
 21
29.1004
 31
0.0000
  0
LINE
  8
21
 10
84.8266
 20
29.1004
 30
0.0000
 11
85.5225
 21
34.0517
 31
0.0000
  0
LINE
  8
21
 10
83.8925
 20
31.4356
 30
0.0000
 11
84.3643
 21
31.3693
 31
0.0000
  0
LINE
  8
21
 10
83.8925
 20
31.4356
 30
0.0000
 11
83.5092
 21
32.1307
 31
0.0000
  0
LINE
  8
21
 10
83.5092
 20
32.1307
 30
0.0000
 11
83.9809
 21
32.0644
 31
0.0000
  0
LINE
  8
21
 10
83.9809
 20
32.0644
 30
0.0000
 11
84.4526
 21
31.9981
 31
0.0000
  0
LINE
  8
21
 10
84.4526
 20
31.9981
 30
0.0000
 11
83.8925
 21
31.4356
 31
0.0000
  0
LINE
  8
21
 10
83.4208
 20
31.5019
 30
0.0000
 11
83.8925
 21
31.4356
 31
0.0000
  0
LINE
  8
21
 10
83.8925
 20
31.4356
 30
0.0000
 11
83.8704
 21
31.2783
 31
0.0000
  0
LINE
  8
21
 10
83.9809
 20
32.0644
 30
0.0000
 11
84.0030
 21
32.2217
 31
0.0000
  0
LINE
  8
21
 10
84.6301
 20
27.7017
 30
0.0000
 11
82.1544
 21
28.0496
 31
0.0000
  0
LINE
  8
21
 10
82.1544
 20
28.0496
 30
0.0000
 11
81.4585
 21
23.0983
 31
0.0000
  0
LINE
  8
21
 10
81.4585
 20
23.0983
 30
0.0000
 11
83.9342
 21
22.7504
 31
0.0000
  0
LINE
  8
21
 10
83.9342
 20
22.7504
 30
0.0000
 11
84.6301
 21
27.7017
 31
0.0000
  0
LINE
  8
21
 10
83.0001
 20
25.0856
 30
0.0000
 11
83.4719
 21
25.0193
 31
0.0000
  0
LINE
  8
21
 10
83.0001
 20
25.0856
 30
0.0000
 11
82.6168
 21
25.7807
 31
0.0000
  0
LINE
  8
21
 10
82.6168
 20
25.7807
 30
0.0000
 11
83.0885
 21
25.7144
 31
0.0000
  0
LINE
  8
21
 10
83.0885
 20
25.7144
 30
0.0000
 11
83.5602
 21
25.6481
 31
0.0000
  0
LINE
  8
21
 10
83.5602
 20
25.6481
 30
0.0000
 11
83.0001
 21
25.0856
 31
0.0000
  0
LINE
  8
21
 10
82.5284
 20
25.1519
 30
0.0000
 11
83.0001
 21
25.0856
 31
0.0000
  0
LINE
  8
21
 10
83.0001
 20
25.0856
 30
0.0000
 11
82.9780
 21
24.9283
 31
0.0000
  0
LINE
  8
21
 10
83.0885
 20
25.7144
 30
0.0000
 11
83.1106
 21
25.8717
 31
0.0000
  0
LINE
  8
21
 10
102.0325
 20
34.0517
 30
0.0000
 11
99.5568
 21
34.3996
 31
0.0000
  0
LINE
  8
21
 10
99.5568
 20
34.3996
 30
0.0000
 11
98.8609
 21
29.4483
 31
0.0000
  0
LINE
  8
21
 10
98.8609
 20
29.4483
 30
0.0000
 11
101.3366
 21
29.1004
 31
0.0000
  0
LINE
  8
21
 10
101.3366
 20
29.1004
 30
0.0000
 11
102.0325
 21
34.0517
 31
0.0000
  0
LINE
  8
21
 10
100.4025
 20
31.4356
 30
0.0000
 11
100.8743
 21
31.3693
 31
0.0000
  0
LINE
  8
21
 10
100.4025
 20
31.4356
 30
0.0000
 11
100.0192
 21
32.1307
 31
0.0000
  0
LINE
  8
21
 10
100.0192
 20
32.1307
 30
0.0000
 11
100.4909
 21
32.0644
 31
0.0000
  0
LINE
  8
21
 10
100.4909
 20
32.0644
 30
0.0000
 11
100.9626
 21
31.9981
 31
0.0000
  0
LINE
  8
21
 10
100.9626
 20
31.9981
 30
0.0000
 11
100.4025
 21
31.4356
 31
0.0000
  0
LINE
  8
21
 10
99.9308
 20
31.5019
 30
0.0000
 11
100.4025
 21
31.4356
 31
0.0000
  0
LINE
  8
21
 10
100.4025
 20
31.4356
 30
0.0000
 11
100.3804
 21
31.2783
 31
0.0000
  0
LINE
  8
21
 10
100.4909
 20
32.0644
 30
0.0000
 11
100.5130
 21
32.2217
 31
0.0000
  0
LINE
  8
21
 10
101.1401
 20
27.7017
 30
0.0000
 11
98.6644
 21
28.0496
 31
0.0000
  0
LINE
  8
21
 10
98.6644
 20
28.0496
 30
0.0000
 11
97.9685
 21
23.0983
 31
0.0000
  0
LINE
  8
21
 10
97.9685
 20
23.0983
 30
0.0000
 11
100.4442
 21
22.7504
 31
0.0000
  0
LINE
  8
21
 10
100.4442
 20
22.7504
 30
0.0000
 11
101.1401
 21
27.7017
 31
0.0000
  0
LINE
  8
21
 10
99.5101
 20
25.0856
 30
0.0000
 11
99.9819
 21
25.0193
 31
0.0000
  0
LINE
  8
21
 10
99.5101
 20
25.0856
 30
0.0000
 11
99.1268
 21
25.7807
 31
0.0000
  0
LINE
  8
21
 10
99.1268
 20
25.7807
 30
0.0000
 11
99.5985
 21
25.7144
 31
0.0000
  0
LINE
  8
21
 10
99.5985
 20
25.7144
 30
0.0000
 11
100.0701
 21
25.6481
 31
0.0000
  0
LINE
  8
21
 10
100.0701
 20
25.6481
 30
0.0000
 11
99.5101
 21
25.0856
 31
0.0000
  0
LINE
  8
21
 10
99.0384
 20
25.1519
 30
0.0000
 11
99.5101
 21
25.0856
 31
0.0000
  0
LINE
  8
21
 10
99.5101
 20
25.0856
 30
0.0000
 11
99.4880
 21
24.9283
 31
0.0000
  0
LINE
  8
21
 10
99.5985
 20
25.7144
 30
0.0000
 11
99.6206
 21
25.8717
 31
0.0000
  0
LINE
  8
21
 10
3.1922
 20
17.5417
 30
0.0000
 11
0.7165
 21
17.8896
 31
0.0000
  0
LINE
  8
21
 10
0.7165
 20
17.8896
 30
0.0000
 11
0.0206
 21
12.9383
 31
0.0000
  0
LINE
  8
21
 10
0.0206
 20
12.9383
 30
0.0000
 11
2.4963
 21
12.5904
 31
0.0000
  0
LINE
  8
21
 10
2.4963
 20
12.5904
 30
0.0000
 11
3.1922
 21
17.5417
 31
0.0000
  0
LINE
  8
21
 10
1.5622
 20
14.9256
 30
0.0000
 11
2.0340
 21
14.8593
 31
0.0000
  0
LINE
  8
21
 10
1.5622
 20
14.9256
 30
0.0000
 11
1.1789
 21
15.6207
 31
0.0000
  0
LINE
  8
21
 10
1.1789
 20
15.6207
 30
0.0000
 11
1.6506
 21
15.5544
 31
0.0000
  0
LINE
  8
21
 10
1.6506
 20
15.5544
 30
0.0000
 11
2.1223
 21
15.4881
 31
0.0000
  0
LINE
  8
21
 10
2.1223
 20
15.4881
 30
0.0000
 11
1.5622
 21
14.9256
 31
0.0000
  0
LINE
  8
21
 10
1.0905
 20
14.9919
 30
0.0000
 11
1.5622
 21
14.9256
 31
0.0000
  0
LINE
  8
21
 10
1.5622
 20
14.9256
 30
0.0000
 11
1.5401
 21
14.7683
 31
0.0000
  0
LINE
  8
21
 10
1.6506
 20
15.5544
 30
0.0000
 11
1.6727
 21
15.7117
 31
0.0000
  0
LINE
  8
21
 10
2.2997
 20
11.1917
 30
0.0000
 11
-0.1760
 21
11.5396
 31
0.0000
  0
LINE
  8
21
 10
-0.1760
 20
11.5396
 30
0.0000
 11
-0.8719
 21
6.5883
 31
0.0000
  0
LINE
  8
21
 10
-0.8719
 20
6.5883
 30
0.0000
 11
1.6038
 21
6.2404
 31
0.0000
  0
LINE
  8
21
 10
1.6038
 20
6.2404
 30
0.0000
 11
2.2997
 21
11.1917
 31
0.0000
  0
LINE
  8
21
 10
0.6697
 20
8.5756
 30
0.0000
 11
1.1415
 21
8.5093
 31
0.0000
  0
LINE
  8
21
 10
0.6697
 20
8.5756
 30
0.0000
 11
0.2864
 21
9.2707
 31
0.0000
  0
LINE
  8
21
 10
0.2864
 20
9.2707
 30
0.0000
 11
0.7581
 21
9.2044
 31
0.0000
  0
LINE
  8
21
 10
0.7581
 20
9.2044
 30
0.0000
 11
1.2298
 21
9.1381
 31
0.0000
  0
LINE
  8
21
 10
1.2298
 20
9.1381
 30
0.0000
 11
0.6697
 21
8.5756
 31
0.0000
  0
LINE
  8
21
 10
0.1980
 20
8.6419
 30
0.0000
 11
0.6697
 21
8.5756
 31
0.0000
  0
LINE
  8
21
 10
0.6697
 20
8.5756
 30
0.0000
 11
0.6476
 21
8.4183
 31
0.0000
  0
LINE
  8
21
 10
0.7581
 20
9.2044
 30
0.0000
 11
0.7802
 21
9.3617
 31
0.0000
  0
LINE
  8
21
 10
19.7022
 20
17.5417
 30
0.0000
 11
17.2265
 21
17.8896
 31
0.0000
  0
LINE
  8
21
 10
17.2265
 20
17.8896
 30
0.0000
 11
16.5306
 21
12.9383
 31
0.0000
  0
LINE
  8
21
 10
16.5306
 20
12.9383
 30
0.0000
 11
19.0063
 21
12.5904
 31
0.0000
  0
LINE
  8
21
 10
19.0063
 20
12.5904
 30
0.0000
 11
19.7022
 21
17.5417
 31
0.0000
  0
LINE
  8
21
 10
18.0722
 20
14.9256
 30
0.0000
 11
18.5440
 21
14.8593
 31
0.0000
  0
LINE
  8
21
 10
18.0722
 20
14.9256
 30
0.0000
 11
17.6889
 21
15.6207
 31
0.0000
  0
LINE
  8
21
 10
17.6889
 20
15.6207
 30
0.0000
 11
18.1606
 21
15.5544
 31
0.0000
  0
LINE
  8
21
 10
18.1606
 20
15.5544
 30
0.0000
 11
18.6323
 21
15.4881
 31
0.0000
  0
LINE
  8
21
 10
18.6323
 20
15.4881
 30
0.0000
 11
18.0722
 21
14.9256
 31
0.0000
  0
LINE
  8
21
 10
17.6005
 20
14.9919
 30
0.0000
 11
18.0722
 21
14.9256
 31
0.0000
  0
LINE
  8
21
 10
18.0722
 20
14.9256
 30
0.0000
 11
18.0501
 21
14.7683
 31
0.0000
  0
LINE
  8
21
 10
18.1606
 20
15.5544
 30
0.0000
 11
18.1827
 21
15.7117
 31
0.0000
  0
LINE
  8
21
 10
18.8097
 20
11.1917
 30
0.0000
 11
16.3340
 21
11.5396
 31
0.0000
  0
LINE
  8
21
 10
16.3340
 20
11.5396
 30
0.0000
 11
15.6381
 21
6.5883
 31
0.0000
  0
LINE
  8
21
 10
15.6381
 20
6.5883
 30
0.0000
 11
18.1138
 21
6.2404
 31
0.0000
  0
LINE
  8
21
 10
18.1138
 20
6.2404
 30
0.0000
 11
18.8097
 21
11.1917
 31
0.0000
  0
LINE
  8
21
 10
17.1797
 20
8.5756
 30
0.0000
 11
17.6515
 21
8.5093
 31
0.0000
  0
LINE
  8
21
 10
17.1797
 20
8.5756
 30
0.0000
 11
16.7964
 21
9.2707
 31
0.0000
  0
LINE
  8
21
 10
16.7964
 20
9.2707
 30
0.0000
 11
17.2681
 21
9.2044
 31
0.0000
  0
LINE
  8
21
 10
17.2681
 20
9.2044
 30
0.0000
 11
17.7398
 21
9.1381
 31
0.0000
  0
LINE
  8
21
 10
17.7398
 20
9.1381
 30
0.0000
 11
17.1797
 21
8.5756
 31
0.0000
  0
LINE
  8
21
 10
16.7080
 20
8.6419
 30
0.0000
 11
17.1797
 21
8.5756
 31
0.0000
  0
LINE
  8
21
 10
17.1797
 20
8.5756
 30
0.0000
 11
17.1576
 21
8.4183
 31
0.0000
  0
LINE
  8
21
 10
17.2681
 20
9.2044
 30
0.0000
 11
17.2902
 21
9.3617
 31
0.0000
  0
LINE
  8
21
 10
27.3222
 20
17.5417
 30
0.0000
 11
24.8465
 21
17.8896
 31
0.0000
  0
LINE
  8
21
 10
24.8465
 20
17.8896
 30
0.0000
 11
24.1506
 21
12.9383
 31
0.0000
  0
LINE
  8
21
 10
24.1506
 20
12.9383
 30
0.0000
 11
26.6263
 21
12.5904
 31
0.0000
  0
LINE
  8
21
 10
26.6263
 20
12.5904
 30
0.0000
 11
27.3222
 21
17.5417
 31
0.0000
  0
LINE
  8
21
 10
25.6922
 20
14.9256
 30
0.0000
 11
26.1640
 21
14.8593
 31
0.0000
  0
LINE
  8
21
 10
25.6922
 20
14.9256
 30
0.0000
 11
25.3089
 21
15.6207
 31
0.0000
  0
LINE
  8
21
 10
25.3089
 20
15.6207
 30
0.0000
 11
25.7806
 21
15.5544
 31
0.0000
  0
LINE
  8
21
 10
25.7806
 20
15.5544
 30
0.0000
 11
26.2523
 21
15.4881
 31
0.0000
  0
LINE
  8
21
 10
26.2523
 20
15.4881
 30
0.0000
 11
25.6922
 21
14.9256
 31
0.0000
  0
LINE
  8
21
 10
25.2205
 20
14.9919
 30
0.0000
 11
25.6922
 21
14.9256
 31
0.0000
  0
LINE
  8
21
 10
25.6922
 20
14.9256
 30
0.0000
 11
25.6701
 21
14.7683
 31
0.0000
  0
LINE
  8
21
 10
25.7806
 20
15.5544
 30
0.0000
 11
25.8027
 21
15.7117
 31
0.0000
  0
LINE
  8
21
 10
26.4297
 20
11.1917
 30
0.0000
 11
23.9540
 21
11.5396
 31
0.0000
  0
LINE
  8
21
 10
23.9540
 20
11.5396
 30
0.0000
 11
23.2581
 21
6.5883
 31
0.0000
  0
LINE
  8
21
 10
23.2581
 20
6.5883
 30
0.0000
 11
25.7338
 21
6.2404
 31
0.0000
  0
LINE
  8
21
 10
25.7338
 20
6.2404
 30
0.0000
 11
26.4297
 21
11.1917
 31
0.0000
  0
LINE
  8
21
 10
24.7997
 20
8.5756
 30
0.0000
 11
25.2715
 21
8.5093
 31
0.0000
  0
LINE
  8
21
 10
24.7997
 20
8.5756
 30
0.0000
 11
24.4164
 21
9.2707
 31
0.0000
  0
LINE
  8
21
 10
24.4164
 20
9.2707
 30
0.0000
 11
24.8881
 21
9.2044
 31
0.0000
  0
LINE
  8
21
 10
24.8881
 20
9.2044
 30
0.0000
 11
25.3598
 21
9.1381
 31
0.0000
  0
LINE
  8
21
 10
25.3598
 20
9.1381
 30
0.0000
 11
24.7997
 21
8.5756
 31
0.0000
  0
LINE
  8
21
 10
24.3280
 20
8.6419
 30
0.0000
 11
24.7997
 21
8.5756
 31
0.0000
  0
LINE
  8
21
 10
24.7997
 20
8.5756
 30
0.0000
 11
24.7776
 21
8.4183
 31
0.0000
  0
LINE
  8
21
 10
24.8881
 20
9.2044
 30
0.0000
 11
24.9102
 21
9.3617
 31
0.0000
  0
LINE
  8
21
 10
43.8322
 20
17.5417
 30
0.0000
 11
41.3565
 21
17.8896
 31
0.0000
  0
LINE
  8
21
 10
41.3565
 20
17.8896
 30
0.0000
 11
40.6606
 21
12.9383
 31
0.0000
  0
LINE
  8
21
 10
40.6606
 20
12.9383
 30
0.0000
 11
43.1363
 21
12.5904
 31
0.0000
  0
LINE
  8
21
 10
43.1363
 20
12.5904
 30
0.0000
 11
43.8322
 21
17.5417
 31
0.0000
  0
LINE
  8
21
 10
42.2022
 20
14.9256
 30
0.0000
 11
42.6740
 21
14.8593
 31
0.0000
  0
LINE
  8
21
 10
42.2022
 20
14.9256
 30
0.0000
 11
41.8189
 21
15.6207
 31
0.0000
  0
LINE
  8
21
 10
41.8189
 20
15.6207
 30
0.0000
 11
42.2906
 21
15.5544
 31
0.0000
  0
LINE
  8
21
 10
42.2906
 20
15.5544
 30
0.0000
 11
42.7623
 21
15.4881
 31
0.0000
  0
LINE
  8
21
 10
42.7623
 20
15.4881
 30
0.0000
 11
42.2022
 21
14.9256
 31
0.0000
  0
LINE
  8
21
 10
41.7305
 20
14.9919
 30
0.0000
 11
42.2022
 21
14.9256
 31
0.0000
  0
LINE
  8
21
 10
42.2022
 20
14.9256
 30
0.0000
 11
42.1801
 21
14.7683
 31
0.0000
  0
LINE
  8
21
 10
42.2906
 20
15.5544
 30
0.0000
 11
42.3127
 21
15.7117
 31
0.0000
  0
LINE
  8
21
 10
42.9397
 20
11.1917
 30
0.0000
 11
40.4640
 21
11.5396
 31
0.0000
  0
LINE
  8
21
 10
40.4640
 20
11.5396
 30
0.0000
 11
39.7681
 21
6.5883
 31
0.0000
  0
LINE
  8
21
 10
39.7681
 20
6.5883
 30
0.0000
 11
42.2438
 21
6.2404
 31
0.0000
  0
LINE
  8
21
 10
42.2438
 20
6.2404
 30
0.0000
 11
42.9397
 21
11.1917
 31
0.0000
  0
LINE
  8
21
 10
41.3097
 20
8.5756
 30
0.0000
 11
41.7815
 21
8.5093
 31
0.0000
  0
LINE
  8
21
 10
41.3097
 20
8.5756
 30
0.0000
 11
40.9264
 21
9.2707
 31
0.0000
  0
LINE
  8
21
 10
40.9264
 20
9.2707
 30
0.0000
 11
41.3981
 21
9.2044
 31
0.0000
  0
LINE
  8
21
 10
41.3981
 20
9.2044
 30
0.0000
 11
41.8698
 21
9.1381
 31
0.0000
  0
LINE
  8
21
 10
41.8698
 20
9.1381
 30
0.0000
 11
41.3097
 21
8.5756
 31
0.0000
  0
LINE
  8
21
 10
40.8380
 20
8.6419
 30
0.0000
 11
41.3097
 21
8.5756
 31
0.0000
  0
LINE
  8
21
 10
41.3097
 20
8.5756
 30
0.0000
 11
41.2876
 21
8.4183
 31
0.0000
  0
LINE
  8
21
 10
41.3981
 20
9.2044
 30
0.0000
 11
41.4202
 21
9.3617
 31
0.0000
  0
LINE
  8
21
 10
4.9003
 20
21.5700
 30
0.0000
 11
4.9003
 21
19.0700
 31
0.0000
  0
LINE
  8
21
 10
4.9003
 20
19.0700
 30
0.0000
 11
9.9003
 21
19.0700
 31
0.0000
  0
LINE
  8
21
 10
9.9003
 20
19.0700
 30
0.0000
 11
9.9003
 21
21.5700
 31
0.0000
  0
LINE
  8
21
 10
9.9003
 20
21.5700
 30
0.0000
 11
4.9003
 21
21.5700
 31
0.0000
  0
LINE
  8
21
 10
7.7178
 20
20.3200
 30
0.0000
 11
7.7178
 21
20.7964
 31
0.0000
  0
LINE
  8
21
 10
7.7178
 20
20.3200
 30
0.0000
 11
7.0828
 21
19.8437
 31
0.0000
  0
LINE
  8
21
 10
7.0828
 20
19.8437
 30
0.0000
 11
7.0828
 21
20.3200
 31
0.0000
  0
LINE
  8
21
 10
7.0828
 20
20.3200
 30
0.0000
 11
7.0828
 21
20.7963
 31
0.0000
  0
LINE
  8
21
 10
7.0828
 20
20.7963
 30
0.0000
 11
7.7178
 21
20.3200
 31
0.0000
  0
LINE
  8
21
 10
7.7178
 20
19.8437
 30
0.0000
 11
7.7178
 21
20.3200
 31
0.0000
  0
LINE
  8
21
 10
7.7178
 20
20.3200
 30
0.0000
 11
7.8766
 21
20.3200
 31
0.0000
  0
LINE
  8
21
 10
7.0828
 20
20.3200
 30
0.0000
 11
6.9240
 21
20.3200
 31
0.0000
  0
LINE
  8
21
 10
11.2503
 20
21.5700
 30
0.0000
 11
11.2503
 21
19.0700
 31
0.0000
  0
LINE
  8
21
 10
11.2503
 20
19.0700
 30
0.0000
 11
16.2503
 21
19.0700
 31
0.0000
  0
LINE
  8
21
 10
16.2503
 20
19.0700
 30
0.0000
 11
16.2503
 21
21.5700
 31
0.0000
  0
LINE
  8
21
 10
16.2503
 20
21.5700
 30
0.0000
 11
11.2503
 21
21.5700
 31
0.0000
  0
LINE
  8
21
 10
14.0678
 20
20.3200
 30
0.0000
 11
14.0678
 21
20.7964
 31
0.0000
  0
LINE
  8
21
 10
14.0678
 20
20.3200
 30
0.0000
 11
13.4328
 21
19.8437
 31
0.0000
  0
LINE
  8
21
 10
13.4328
 20
19.8437
 30
0.0000
 11
13.4328
 21
20.3200
 31
0.0000
  0
LINE
  8
21
 10
13.4328
 20
20.3200
 30
0.0000
 11
13.4328
 21
20.7963
 31
0.0000
  0
LINE
  8
21
 10
13.4328
 20
20.7963
 30
0.0000
 11
14.0678
 21
20.3200
 31
0.0000
  0
LINE
  8
21
 10
14.0678
 20
19.8437
 30
0.0000
 11
14.0678
 21
20.3200
 31
0.0000
  0
LINE
  8
21
 10
14.0678
 20
20.3200
 30
0.0000
 11
14.2266
 21
20.3200
 31
0.0000
  0
LINE
  8
21
 10
13.4328
 20
20.3200
 30
0.0000
 11
13.2740
 21
20.3200
 31
0.0000
  0
LINE
  8
21
 10
29.0303
 20
21.5700
 30
0.0000
 11
29.0303
 21
19.0700
 31
0.0000
  0
LINE
  8
21
 10
29.0303
 20
19.0700
 30
0.0000
 11
34.0303
 21
19.0700
 31
0.0000
  0
LINE
  8
21
 10
34.0303
 20
19.0700
 30
0.0000
 11
34.0303
 21
21.5700
 31
0.0000
  0
LINE
  8
21
 10
34.0303
 20
21.5700
 30
0.0000
 11
29.0303
 21
21.5700
 31
0.0000
  0
LINE
  8
21
 10
31.8478
 20
20.3200
 30
0.0000
 11
31.8478
 21
20.7964
 31
0.0000
  0
LINE
  8
21
 10
31.8478
 20
20.3200
 30
0.0000
 11
31.2128
 21
19.8437
 31
0.0000
  0
LINE
  8
21
 10
31.2128
 20
19.8437
 30
0.0000
 11
31.2128
 21
20.3200
 31
0.0000
  0
LINE
  8
21
 10
31.2128
 20
20.3200
 30
0.0000
 11
31.2128
 21
20.7963
 31
0.0000
  0
LINE
  8
21
 10
31.2128
 20
20.7963
 30
0.0000
 11
31.8478
 21
20.3200
 31
0.0000
  0
LINE
  8
21
 10
31.8478
 20
19.8437
 30
0.0000
 11
31.8478
 21
20.3200
 31
0.0000
  0
LINE
  8
21
 10
31.8478
 20
20.3200
 30
0.0000
 11
32.0066
 21
20.3200
 31
0.0000
  0
LINE
  8
21
 10
31.2128
 20
20.3200
 30
0.0000
 11
31.0540
 21
20.3200
 31
0.0000
  0
LINE
  8
21
 10
35.3803
 20
21.5700
 30
0.0000
 11
35.3803
 21
19.0700
 31
0.0000
  0
LINE
  8
21
 10
35.3803
 20
19.0700
 30
0.0000
 11
40.3803
 21
19.0700
 31
0.0000
  0
LINE
  8
21
 10
40.3803
 20
19.0700
 30
0.0000
 11
40.3803
 21
21.5700
 31
0.0000
  0
LINE
  8
21
 10
40.3803
 20
21.5700
 30
0.0000
 11
35.3803
 21
21.5700
 31
0.0000
  0
LINE
  8
21
 10
38.1978
 20
20.3200
 30
0.0000
 11
38.1978
 21
20.7964
 31
0.0000
  0
LINE
  8
21
 10
38.1978
 20
20.3200
 30
0.0000
 11
37.5628
 21
19.8437
 31
0.0000
  0
LINE
  8
21
 10
37.5628
 20
19.8437
 30
0.0000
 11
37.5628
 21
20.3200
 31
0.0000
  0
LINE
  8
21
 10
37.5628
 20
20.3200
 30
0.0000
 11
37.5628
 21
20.7963
 31
0.0000
  0
LINE
  8
21
 10
37.5628
 20
20.7963
 30
0.0000
 11
38.1978
 21
20.3200
 31
0.0000
  0
LINE
  8
21
 10
38.1978
 20
19.8437
 30
0.0000
 11
38.1978
 21
20.3200
 31
0.0000
  0
LINE
  8
21
 10
38.1978
 20
20.3200
 30
0.0000
 11
38.3566
 21
20.3200
 31
0.0000
  0
LINE
  8
21
 10
37.5628
 20
20.3200
 30
0.0000
 11
37.4040
 21
20.3200
 31
0.0000
  0
LINE
  8
21
 10
59.0722
 20
17.5417
 30
0.0000
 11
56.5965
 21
17.8896
 31
0.0000
  0
LINE
  8
21
 10
56.5965
 20
17.8896
 30
0.0000
 11
55.9006
 21
12.9383
 31
0.0000
  0
LINE
  8
21
 10
55.9006
 20
12.9383
 30
0.0000
 11
58.3763
 21
12.5904
 31
0.0000
  0
LINE
  8
21
 10
58.3763
 20
12.5904
 30
0.0000
 11
59.0722
 21
17.5417
 31
0.0000
  0
LINE
  8
21
 10
57.4422
 20
14.9256
 30
0.0000
 11
57.9140
 21
14.8593
 31
0.0000
  0
LINE
  8
21
 10
57.4422
 20
14.9256
 30
0.0000
 11
57.0589
 21
15.6207
 31
0.0000
  0
LINE
  8
21
 10
57.0589
 20
15.6207
 30
0.0000
 11
57.5306
 21
15.5544
 31
0.0000
  0
LINE
  8
21
 10
57.5306
 20
15.5544
 30
0.0000
 11
58.0023
 21
15.4881
 31
0.0000
  0
LINE
  8
21
 10
58.0023
 20
15.4881
 30
0.0000
 11
57.4422
 21
14.9256
 31
0.0000
  0
LINE
  8
21
 10
56.9705
 20
14.9919
 30
0.0000
 11
57.4422
 21
14.9256
 31
0.0000
  0
LINE
  8
21
 10
57.4422
 20
14.9256
 30
0.0000
 11
57.4201
 21
14.7683
 31
0.0000
  0
LINE
  8
21
 10
57.5306
 20
15.5544
 30
0.0000
 11
57.5527
 21
15.7117
 31
0.0000
  0
LINE
  8
21
 10
58.1797
 20
11.1917
 30
0.0000
 11
55.7040
 21
11.5396
 31
0.0000
  0
LINE
  8
21
 10
55.7040
 20
11.5396
 30
0.0000
 11
55.0081
 21
6.5883
 31
0.0000
  0
LINE
  8
21
 10
55.0081
 20
6.5883
 30
0.0000
 11
57.4838
 21
6.2404
 31
0.0000
  0
LINE
  8
21
 10
57.4838
 20
6.2404
 30
0.0000
 11
58.1797
 21
11.1917
 31
0.0000
  0
LINE
  8
21
 10
56.5497
 20
8.5756
 30
0.0000
 11
57.0215
 21
8.5093
 31
0.0000
  0
LINE
  8
21
 10
56.5497
 20
8.5756
 30
0.0000
 11
56.1664
 21
9.2707
 31
0.0000
  0
LINE
  8
21
 10
56.1664
 20
9.2707
 30
0.0000
 11
56.6381
 21
9.2044
 31
0.0000
  0
LINE
  8
21
 10
56.6381
 20
9.2044
 30
0.0000
 11
57.1098
 21
9.1381
 31
0.0000
  0
LINE
  8
21
 10
57.1098
 20
9.1381
 30
0.0000
 11
56.5497
 21
8.5756
 31
0.0000
  0
LINE
  8
21
 10
56.0780
 20
8.6419
 30
0.0000
 11
56.5497
 21
8.5756
 31
0.0000
  0
LINE
  8
21
 10
56.5497
 20
8.5756
 30
0.0000
 11
56.5276
 21
8.4183
 31
0.0000
  0
LINE
  8
21
 10
56.6381
 20
9.2044
 30
0.0000
 11
56.6602
 21
9.3617
 31
0.0000
  0
LINE
  8
21
 10
75.5822
 20
17.5417
 30
0.0000
 11
73.1065
 21
17.8896
 31
0.0000
  0
LINE
  8
21
 10
73.1065
 20
17.8896
 30
0.0000
 11
72.4106
 21
12.9383
 31
0.0000
  0
LINE
  8
21
 10
72.4106
 20
12.9383
 30
0.0000
 11
74.8863
 21
12.5904
 31
0.0000
  0
LINE
  8
21
 10
74.8863
 20
12.5904
 30
0.0000
 11
75.5822
 21
17.5417
 31
0.0000
  0
LINE
  8
21
 10
73.9522
 20
14.9256
 30
0.0000
 11
74.4240
 21
14.8593
 31
0.0000
  0
LINE
  8
21
 10
73.9522
 20
14.9256
 30
0.0000
 11
73.5689
 21
15.6207
 31
0.0000
  0
LINE
  8
21
 10
73.5689
 20
15.6207
 30
0.0000
 11
74.0406
 21
15.5544
 31
0.0000
  0
LINE
  8
21
 10
74.0406
 20
15.5544
 30
0.0000
 11
74.5123
 21
15.4881
 31
0.0000
  0
LINE
  8
21
 10
74.5123
 20
15.4881
 30
0.0000
 11
73.9522
 21
14.9256
 31
0.0000
  0
LINE
  8
21
 10
73.4805
 20
14.9919
 30
0.0000
 11
73.9522
 21
14.9256
 31
0.0000
  0
LINE
  8
21
 10
73.9522
 20
14.9256
 30
0.0000
 11
73.9301
 21
14.7683
 31
0.0000
  0
LINE
  8
21
 10
74.0406
 20
15.5544
 30
0.0000
 11
74.0627
 21
15.7117
 31
0.0000
  0
LINE
  8
21
 10
74.6897
 20
11.1917
 30
0.0000
 11
72.2140
 21
11.5396
 31
0.0000
  0
LINE
  8
21
 10
72.2140
 20
11.5396
 30
0.0000
 11
71.5181
 21
6.5883
 31
0.0000
  0
LINE
  8
21
 10
71.5181
 20
6.5883
 30
0.0000
 11
73.9938
 21
6.2404
 31
0.0000
  0
LINE
  8
21
 10
73.9938
 20
6.2404
 30
0.0000
 11
74.6897
 21
11.1917
 31
0.0000
  0
LINE
  8
21
 10
73.0597
 20
8.5756
 30
0.0000
 11
73.5315
 21
8.5093
 31
0.0000
  0
LINE
  8
21
 10
73.0597
 20
8.5756
 30
0.0000
 11
72.6764
 21
9.2707
 31
0.0000
  0
LINE
  8
21
 10
72.6764
 20
9.2707
 30
0.0000
 11
73.1481
 21
9.2044
 31
0.0000
  0
LINE
  8
21
 10
73.1481
 20
9.2044
 30
0.0000
 11
73.6198
 21
9.1381
 31
0.0000
  0
LINE
  8
21
 10
73.6198
 20
9.1381
 30
0.0000
 11
73.0597
 21
8.5756
 31
0.0000
  0
LINE
  8
21
 10
72.5880
 20
8.6419
 30
0.0000
 11
73.0597
 21
8.5756
 31
0.0000
  0
LINE
  8
21
 10
73.0597
 20
8.5756
 30
0.0000
 11
73.0376
 21
8.4183
 31
0.0000
  0
LINE
  8
21
 10
73.1481
 20
9.2044
 30
0.0000
 11
73.1702
 21
9.3617
 31
0.0000
  0
LINE
  8
21
 10
83.2022
 20
17.5417
 30
0.0000
 11
80.7265
 21
17.8896
 31
0.0000
  0
LINE
  8
21
 10
80.7265
 20
17.8896
 30
0.0000
 11
80.0306
 21
12.9383
 31
0.0000
  0
LINE
  8
21
 10
80.0306
 20
12.9383
 30
0.0000
 11
82.5063
 21
12.5904
 31
0.0000
  0
LINE
  8
21
 10
82.5063
 20
12.5904
 30
0.0000
 11
83.2022
 21
17.5417
 31
0.0000
  0
LINE
  8
21
 10
81.5722
 20
14.9256
 30
0.0000
 11
82.0440
 21
14.8593
 31
0.0000
  0
LINE
  8
21
 10
81.5722
 20
14.9256
 30
0.0000
 11
81.1889
 21
15.6207
 31
0.0000
  0
LINE
  8
21
 10
81.1889
 20
15.6207
 30
0.0000
 11
81.6606
 21
15.5544
 31
0.0000
  0
LINE
  8
21
 10
81.6606
 20
15.5544
 30
0.0000
 11
82.1322
 21
15.4881
 31
0.0000
  0
LINE
  8
21
 10
82.1322
 20
15.4881
 30
0.0000
 11
81.5722
 21
14.9256
 31
0.0000
  0
LINE
  8
21
 10
81.1005
 20
14.9919
 30
0.0000
 11
81.5722
 21
14.9256
 31
0.0000
  0
LINE
  8
21
 10
81.5722
 20
14.9256
 30
0.0000
 11
81.5501
 21
14.7683
 31
0.0000
  0
LINE
  8
21
 10
81.6606
 20
15.5544
 30
0.0000
 11
81.6827
 21
15.7117
 31
0.0000
  0
LINE
  8
21
 10
82.3097
 20
11.1917
 30
0.0000
 11
79.8340
 21
11.5396
 31
0.0000
  0
LINE
  8
21
 10
79.8340
 20
11.5396
 30
0.0000
 11
79.1381
 21
6.5883
 31
0.0000
  0
LINE
  8
21
 10
79.1381
 20
6.5883
 30
0.0000
 11
81.6138
 21
6.2404
 31
0.0000
  0
LINE
  8
21
 10
81.6138
 20
6.2404
 30
0.0000
 11
82.3097
 21
11.1917
 31
0.0000
  0
LINE
  8
21
 10
80.6797
 20
8.5756
 30
0.0000
 11
81.1515
 21
8.5093
 31
0.0000
  0
LINE
  8
21
 10
80.6797
 20
8.5756
 30
0.0000
 11
80.2964
 21
9.2707
 31
0.0000
  0
LINE
  8
21
 10
80.2964
 20
9.2707
 30
0.0000
 11
80.7681
 21
9.2044
 31
0.0000
  0
LINE
  8
21
 10
80.7681
 20
9.2044
 30
0.0000
 11
81.2398
 21
9.1381
 31
0.0000
  0
LINE
  8
21
 10
81.2398
 20
9.1381
 30
0.0000
 11
80.6797
 21
8.5756
 31
0.0000
  0
LINE
  8
21
 10
80.2080
 20
8.6419
 30
0.0000
 11
80.6797
 21
8.5756
 31
0.0000
  0
LINE
  8
21
 10
80.6797
 20
8.5756
 30
0.0000
 11
80.6576
 21
8.4183
 31
0.0000
  0
LINE
  8
21
 10
80.7681
 20
9.2044
 30
0.0000
 11
80.7902
 21
9.3617
 31
0.0000
  0
LINE
  8
21
 10
99.7122
 20
17.5417
 30
0.0000
 11
97.2365
 21
17.8896
 31
0.0000
  0
LINE
  8
21
 10
97.2365
 20
17.8896
 30
0.0000
 11
96.5406
 21
12.9383
 31
0.0000
  0
LINE
  8
21
 10
96.5406
 20
12.9383
 30
0.0000
 11
99.0163
 21
12.5904
 31
0.0000
  0
LINE
  8
21
 10
99.0163
 20
12.5904
 30
0.0000
 11
99.7122
 21
17.5417
 31
0.0000
  0
LINE
  8
21
 10
98.0822
 20
14.9256
 30
0.0000
 11
98.5540
 21
14.8593
 31
0.0000
  0
LINE
  8
21
 10
98.0822
 20
14.9256
 30
0.0000
 11
97.6989
 21
15.6207
 31
0.0000
  0
LINE
  8
21
 10
97.6989
 20
15.6207
 30
0.0000
 11
98.1706
 21
15.5544
 31
0.0000
  0
LINE
  8
21
 10
98.1706
 20
15.5544
 30
0.0000
 11
98.6423
 21
15.4881
 31
0.0000
  0
LINE
  8
21
 10
98.6423
 20
15.4881
 30
0.0000
 11
98.0822
 21
14.9256
 31
0.0000
  0
LINE
  8
21
 10
97.6105
 20
14.9919
 30
0.0000
 11
98.0822
 21
14.9256
 31
0.0000
  0
LINE
  8
21
 10
98.0822
 20
14.9256
 30
0.0000
 11
98.0601
 21
14.7683
 31
0.0000
  0
LINE
  8
21
 10
98.1706
 20
15.5544
 30
0.0000
 11
98.1927
 21
15.7117
 31
0.0000
  0
LINE
  8
21
 10
98.8197
 20
11.1917
 30
0.0000
 11
96.3440
 21
11.5396
 31
0.0000
  0
LINE
  8
21
 10
96.3440
 20
11.5396
 30
0.0000
 11
95.6481
 21
6.5883
 31
0.0000
  0
LINE
  8
21
 10
95.6481
 20
6.5883
 30
0.0000
 11
98.1238
 21
6.2404
 31
0.0000
  0
LINE
  8
21
 10
98.1238
 20
6.2404
 30
0.0000
 11
98.8197
 21
11.1917
 31
0.0000
  0
LINE
  8
21
 10
97.1897
 20
8.5756
 30
0.0000
 11
97.6615
 21
8.5093
 31
0.0000
  0
LINE
  8
21
 10
97.1897
 20
8.5756
 30
0.0000
 11
96.8064
 21
9.2707
 31
0.0000
  0
LINE
  8
21
 10
96.8064
 20
9.2707
 30
0.0000
 11
97.2781
 21
9.2044
 31
0.0000
  0
LINE
  8
21
 10
97.2781
 20
9.2044
 30
0.0000
 11
97.7498
 21
9.1381
 31
0.0000
  0
LINE
  8
21
 10
97.7498
 20
9.1381
 30
0.0000
 11
97.1897
 21
8.5756
 31
0.0000
  0
LINE
  8
21
 10
96.7180
 20
8.6419
 30
0.0000
 11
97.1897
 21
8.5756
 31
0.0000
  0
LINE
  8
21
 10
97.1897
 20
8.5756
 30
0.0000
 11
97.1676
 21
8.4183
 31
0.0000
  0
LINE
  8
21
 10
97.2781
 20
9.2044
 30
0.0000
 11
97.3002
 21
9.3617
 31
0.0000
  0
LINE
  8
21
 10
60.7803
 20
21.5700
 30
0.0000
 11
60.7803
 21
19.0700
 31
0.0000
  0
LINE
  8
21
 10
60.7803
 20
19.0700
 30
0.0000
 11
65.7803
 21
19.0700
 31
0.0000
  0
LINE
  8
21
 10
65.7803
 20
19.0700
 30
0.0000
 11
65.7803
 21
21.5700
 31
0.0000
  0
LINE
  8
21
 10
65.7803
 20
21.5700
 30
0.0000
 11
60.7803
 21
21.5700
 31
0.0000
  0
LINE
  8
21
 10
63.5978
 20
20.3200
 30
0.0000
 11
63.5978
 21
20.7964
 31
0.0000
  0
LINE
  8
21
 10
63.5978
 20
20.3200
 30
0.0000
 11
62.9628
 21
19.8437
 31
0.0000
  0
LINE
  8
21
 10
62.9628
 20
19.8437
 30
0.0000
 11
62.9628
 21
20.3200
 31
0.0000
  0
LINE
  8
21
 10
62.9628
 20
20.3200
 30
0.0000
 11
62.9628
 21
20.7963
 31
0.0000
  0
LINE
  8
21
 10
62.9628
 20
20.7963
 30
0.0000
 11
63.5978
 21
20.3200
 31
0.0000
  0
LINE
  8
21
 10
63.5978
 20
19.8437
 30
0.0000
 11
63.5978
 21
20.3200
 31
0.0000
  0
LINE
  8
21
 10
63.5978
 20
20.3200
 30
0.0000
 11
63.7566
 21
20.3200
 31
0.0000
  0
LINE
  8
21
 10
62.9628
 20
20.3200
 30
0.0000
 11
62.8040
 21
20.3200
 31
0.0000
  0
LINE
  8
21
 10
67.1303
 20
21.5700
 30
0.0000
 11
67.1303
 21
19.0700
 31
0.0000
  0
LINE
  8
21
 10
67.1303
 20
19.0700
 30
0.0000
 11
72.1303
 21
19.0700
 31
0.0000
  0
LINE
  8
21
 10
72.1303
 20
19.0700
 30
0.0000
 11
72.1303
 21
21.5700
 31
0.0000
  0
LINE
  8
21
 10
72.1303
 20
21.5700
 30
0.0000
 11
67.1303
 21
21.5700
 31
0.0000
  0
LINE
  8
21
 10
69.9478
 20
20.3200
 30
0.0000
 11
69.9478
 21
20.7964
 31
0.0000
  0
LINE
  8
21
 10
69.9478
 20
20.3200
 30
0.0000
 11
69.3128
 21
19.8437
 31
0.0000
  0
LINE
  8
21
 10
69.3128
 20
19.8437
 30
0.0000
 11
69.3128
 21
20.3200
 31
0.0000
  0
LINE
  8
21
 10
69.3128
 20
20.3200
 30
0.0000
 11
69.3128
 21
20.7963
 31
0.0000
  0
LINE
  8
21
 10
69.3128
 20
20.7963
 30
0.0000
 11
69.9478
 21
20.3200
 31
0.0000
  0
LINE
  8
21
 10
69.9478
 20
19.8437
 30
0.0000
 11
69.9478
 21
20.3200
 31
0.0000
  0
LINE
  8
21
 10
69.9478
 20
20.3200
 30
0.0000
 11
70.1066
 21
20.3200
 31
0.0000
  0
LINE
  8
21
 10
69.3128
 20
20.3200
 30
0.0000
 11
69.1540
 21
20.3200
 31
0.0000
  0
LINE
  8
21
 10
84.9103
 20
21.5700
 30
0.0000
 11
84.9103
 21
19.0700
 31
0.0000
  0
LINE
  8
21
 10
84.9103
 20
19.0700
 30
0.0000
 11
89.9103
 21
19.0700
 31
0.0000
  0
LINE
  8
21
 10
89.9103
 20
19.0700
 30
0.0000
 11
89.9103
 21
21.5700
 31
0.0000
  0
LINE
  8
21
 10
89.9103
 20
21.5700
 30
0.0000
 11
84.9103
 21
21.5700
 31
0.0000
  0
LINE
  8
21
 10
87.7278
 20
20.3200
 30
0.0000
 11
87.7278
 21
20.7964
 31
0.0000
  0
LINE
  8
21
 10
87.7278
 20
20.3200
 30
0.0000
 11
87.0928
 21
19.8437
 31
0.0000
  0
LINE
  8
21
 10
87.0928
 20
19.8437
 30
0.0000
 11
87.0928
 21
20.3200
 31
0.0000
  0
LINE
  8
21
 10
87.0928
 20
20.3200
 30
0.0000
 11
87.0928
 21
20.7963
 31
0.0000
  0
LINE
  8
21
 10
87.0928
 20
20.7963
 30
0.0000
 11
87.7278
 21
20.3200
 31
0.0000
  0
LINE
  8
21
 10
87.7278
 20
19.8437
 30
0.0000
 11
87.7278
 21
20.3200
 31
0.0000
  0
LINE
  8
21
 10
87.7278
 20
20.3200
 30
0.0000
 11
87.8866
 21
20.3200
 31
0.0000
  0
LINE
  8
21
 10
87.0928
 20
20.3200
 30
0.0000
 11
86.9340
 21
20.3200
 31
0.0000
  0
LINE
  8
21
 10
91.2603
 20
21.5700
 30
0.0000
 11
91.2603
 21
19.0700
 31
0.0000
  0
LINE
  8
21
 10
91.2603
 20
19.0700
 30
0.0000
 11
96.2603
 21
19.0700
 31
0.0000
  0
LINE
  8
21
 10
96.2603
 20
19.0700
 30
0.0000
 11
96.2603
 21
21.5700
 31
0.0000
  0
LINE
  8
21
 10
96.2603
 20
21.5700
 30
0.0000
 11
91.2603
 21
21.5700
 31
0.0000
  0
LINE
  8
21
 10
94.0778
 20
20.3200
 30
0.0000
 11
94.0778
 21
20.7964
 31
0.0000
  0
LINE
  8
21
 10
94.0778
 20
20.3200
 30
0.0000
 11
93.4428
 21
19.8437
 31
0.0000
  0
LINE
  8
21
 10
93.4428
 20
19.8437
 30
0.0000
 11
93.4428
 21
20.3200
 31
0.0000
  0
LINE
  8
21
 10
93.4428
 20
20.3200
 30
0.0000
 11
93.4428
 21
20.7963
 31
0.0000
  0
LINE
  8
21
 10
93.4428
 20
20.7963
 30
0.0000
 11
94.0778
 21
20.3200
 31
0.0000
  0
LINE
  8
21
 10
94.0778
 20
19.8437
 30
0.0000
 11
94.0778
 21
20.3200
 31
0.0000
  0
LINE
  8
21
 10
94.0778
 20
20.3200
 30
0.0000
 11
94.2366
 21
20.3200
 31
0.0000
  0
LINE
  8
21
 10
93.4428
 20
20.3200
 30
0.0000
 11
93.2840
 21
20.3200
 31
0.0000
  0
ARC
  8
21
 10
68.8847
 20
15.9385
 30
0.0000
 40
0.2540
 50
270.0000
 51
0.0000
  0
ARC
  8
21
 10
68.8847
 20
17.7165
 30
0.0000
 40
0.2540
 50
0.0000
 51
90.0000
  0
ARC
  8
21
 10
63.0427
 20
17.7165
 30
0.0000
 40
0.2540
 50
90.0000
 51
180.0000
  0
ARC
  8
21
 10
63.0427
 20
15.9385
 30
0.0000
 40
0.2540
 50
180.0000
 51
270.0000
  0
LINE
  8
21
 10
69.1387
 20
17.7165
 30
0.0000
 11
69.1387
 21
15.9385
 31
0.0000
  0
LINE
  8
21
 10
68.8847
 20
15.6845
 30
0.0000
 11
68.5037
 21
15.6845
 31
0.0000
  0
LINE
  8
21
 10
68.3767
 20
15.8115
 30
0.0000
 11
68.5037
 21
15.6845
 31
0.0000
  0
LINE
  8
21
 10
68.8847
 20
17.9705
 30
0.0000
 11
68.5037
 21
17.9705
 31
0.0000
  0
LINE
  8
21
 10
68.3767
 20
17.8435
 30
0.0000
 11
68.5037
 21
17.9705
 31
0.0000
  0
LINE
  8
21
 10
63.5507
 20
15.8115
 30
0.0000
 11
63.4237
 21
15.6845
 31
0.0000
  0
LINE
  8
21
 10
63.5507
 20
15.8115
 30
0.0000
 11
68.3767
 21
15.8115
 31
0.0000
  0
LINE
  8
21
 10
63.5507
 20
17.8435
 30
0.0000
 11
63.4237
 21
17.9705
 31
0.0000
  0
LINE
  8
21
 10
63.5507
 20
17.8435
 30
0.0000
 11
68.3767
 21
17.8435
 31
0.0000
  0
LINE
  8
21
 10
63.0427
 20
15.6845
 30
0.0000
 11
63.4237
 21
15.6845
 31
0.0000
  0
LINE
  8
21
 10
63.0427
 20
17.9705
 30
0.0000
 11
63.4237
 21
17.9705
 31
0.0000
  0
LINE
  8
21
 10
62.7887
 20
17.7165
 30
0.0000
 11
62.7887
 21
15.9385
 31
0.0000
  0
INSERT
  8
21
  2
RECT
 10
62.3569
 20
16.8275
 30
0.0000
 41
0.8636
 42
0.6096
 43
1.0000
 50
180.0000
  0
INSERT
  8
21
  2
RECT
 10
69.5705
 20
16.8275
 30
0.0000
 41
0.8636
 42
0.6096
 43
1.0000
 50
180.0000
  0
ARC
  8
21
 10
68.4387
 20
12.7635
 30
0.0000
 40
0.2540
 50
270.0000
 51
0.0000
  0
ARC
  8
21
 10
68.4387
 20
14.5415
 30
0.0000
 40
0.2540
 50
0.0000
 51
90.0000
  0
ARC
  8
21
 10
62.5967
 20
14.5415
 30
0.0000
 40
0.2540
 50
90.0000
 51
180.0000
  0
ARC
  8
21
 10
62.5967
 20
12.7635
 30
0.0000
 40
0.2540
 50
180.0000
 51
270.0000
  0
LINE
  8
21
 10
68.6927
 20
14.5415
 30
0.0000
 11
68.6927
 21
12.7635
 31
0.0000
  0
LINE
  8
21
 10
68.4387
 20
12.5095
 30
0.0000
 11
68.0577
 21
12.5095
 31
0.0000
  0
LINE
  8
21
 10
67.9307
 20
12.6365
 30
0.0000
 11
68.0577
 21
12.5095
 31
0.0000
  0
LINE
  8
21
 10
68.4387
 20
14.7955
 30
0.0000
 11
68.0577
 21
14.7955
 31
0.0000
  0
LINE
  8
21
 10
67.9307
 20
14.6685
 30
0.0000
 11
68.0577
 21
14.7955
 31
0.0000
  0
LINE
  8
21
 10
63.1047
 20
12.6365
 30
0.0000
 11
62.9777
 21
12.5095
 31
0.0000
  0
LINE
  8
21
 10
63.1047
 20
12.6365
 30
0.0000
 11
67.9307
 21
12.6365
 31
0.0000
  0
LINE
  8
21
 10
63.1047
 20
14.6685
 30
0.0000
 11
62.9777
 21
14.7955
 31
0.0000
  0
LINE
  8
21
 10
63.1047
 20
14.6685
 30
0.0000
 11
67.9307
 21
14.6685
 31
0.0000
  0
LINE
  8
21
 10
62.5967
 20
12.5095
 30
0.0000
 11
62.9777
 21
12.5095
 31
0.0000
  0
LINE
  8
21
 10
62.5967
 20
14.7955
 30
0.0000
 11
62.9777
 21
14.7955
 31
0.0000
  0
LINE
  8
21
 10
62.3427
 20
14.5415
 30
0.0000
 11
62.3427
 21
12.7635
 31
0.0000
  0
INSERT
  8
21
  2
RECT
 10
61.9109
 20
13.6525
 30
0.0000
 41
0.8636
 42
0.6096
 43
1.0000
 50
180.0000
  0
INSERT
  8
21
  2
RECT
 10
69.1245
 20
13.6525
 30
0.0000
 41
0.8636
 42
0.6096
 43
1.0000
 50
180.0000
  0
ARC
  8
21
 10
67.9926
 20
9.5885
 30
0.0000
 40
0.2540
 50
270.0000
 51
0.0000
  0
ARC
  8
21
 10
67.9926
 20
11.3665
 30
0.0000
 40
0.2540
 50
0.0000
 51
90.0000
  0
ARC
  8
21
 10
62.1506
 20
11.3665
 30
0.0000
 40
0.2540
 50
90.0000
 51
180.0000
  0
ARC
  8
21
 10
62.1506
 20
9.5885
 30
0.0000
 40
0.2540
 50
180.0000
 51
270.0000
  0
LINE
  8
21
 10
68.2466
 20
11.3665
 30
0.0000
 11
68.2466
 21
9.5885
 31
0.0000
  0
LINE
  8
21
 10
67.9926
 20
9.3345
 30
0.0000
 11
67.6116
 21
9.3345
 31
0.0000
  0
LINE
  8
21
 10
67.4846
 20
9.4615
 30
0.0000
 11
67.6116
 21
9.3345
 31
0.0000
  0
LINE
  8
21
 10
67.9926
 20
11.6205
 30
0.0000
 11
67.6116
 21
11.6205
 31
0.0000
  0
LINE
  8
21
 10
67.4846
 20
11.4935
 30
0.0000
 11
67.6116
 21
11.6205
 31
0.0000
  0
LINE
  8
21
 10
62.6586
 20
9.4615
 30
0.0000
 11
62.5316
 21
9.3345
 31
0.0000
  0
LINE
  8
21
 10
62.6586
 20
9.4615
 30
0.0000
 11
67.4846
 21
9.4615
 31
0.0000
  0
LINE
  8
21
 10
62.6586
 20
11.4935
 30
0.0000
 11
62.5316
 21
11.6205
 31
0.0000
  0
LINE
  8
21
 10
62.6586
 20
11.4935
 30
0.0000
 11
67.4846
 21
11.4935
 31
0.0000
  0
LINE
  8
21
 10
62.1506
 20
9.3345
 30
0.0000
 11
62.5316
 21
9.3345
 31
0.0000
  0
LINE
  8
21
 10
62.1506
 20
11.6205
 30
0.0000
 11
62.5316
 21
11.6205
 31
0.0000
  0
LINE
  8
21
 10
61.8966
 20
11.3665
 30
0.0000
 11
61.8966
 21
9.5885
 31
0.0000
  0
INSERT
  8
21
  2
RECT
 10
61.4648
 20
10.4775
 30
0.0000
 41
0.8636
 42
0.6096
 43
1.0000
 50
180.0000
  0
INSERT
  8
21
  2
RECT
 10
68.6784
 20
10.4775
 30
0.0000
 41
0.8636
 42
0.6096
 43
1.0000
 50
180.0000
  0
ARC
  8
21
 10
61.7045
 20
8.1915
 30
0.0000
 40
0.2540
 50
90.0000
 51
180.0000
  0
ARC
  8
21
 10
61.7045
 20
6.4135
 30
0.0000
 40
0.2540
 50
180.0000
 51
270.0000
  0
ARC
  8
21
 10
67.5465
 20
6.4135
 30
0.0000
 40
0.2540
 50
270.0000
 51
0.0000
  0
ARC
  8
21
 10
67.5465
 20
8.1915
 30
0.0000
 40
0.2540
 50
0.0000
 51
90.0000
  0
LINE
  8
21
 10
61.4505
 20
6.4135
 30
0.0000
 11
61.4505
 21
8.1915
 31
0.0000
  0
LINE
  8
21
 10
61.7045
 20
8.4455
 30
0.0000
 11
62.0855
 21
8.4455
 31
0.0000
  0
LINE
  8
21
 10
62.2125
 20
8.3185
 30
0.0000
 11
62.0855
 21
8.4455
 31
0.0000
  0
LINE
  8
21
 10
61.7045
 20
6.1595
 30
0.0000
 11
62.0855
 21
6.1595
 31
0.0000
  0
LINE
  8
21
 10
62.2125
 20
6.2865
 30
0.0000
 11
62.0855
 21
6.1595
 31
0.0000
  0
LINE
  8
21
 10
67.0385
 20
8.3185
 30
0.0000
 11
67.1655
 21
8.4455
 31
0.0000
  0
LINE
  8
21
 10
67.0385
 20
8.3185
 30
0.0000
 11
62.2125
 21
8.3185
 31
0.0000
  0
LINE
  8
21
 10
67.0385
 20
6.2865
 30
0.0000
 11
67.1655
 21
6.1595
 31
0.0000
  0
LINE
  8
21
 10
67.0385
 20
6.2865
 30
0.0000
 11
62.2125
 21
6.2865
 31
0.0000
  0
LINE
  8
21
 10
67.5465
 20
8.4455
 30
0.0000
 11
67.1655
 21
8.4455
 31
0.0000
  0
LINE
  8
21
 10
67.5465
 20
6.1595
 30
0.0000
 11
67.1655
 21
6.1595
 31
0.0000
  0
LINE
  8
21
 10
67.8005
 20
6.4135
 30
0.0000
 11
67.8005
 21
8.1915
 31
0.0000
  0
INSERT
  8
21
  2
RECT
 10
68.2323
 20
7.3025
 30
0.0000
 41
0.8636
 42
0.6096
 43
1.0000
 50
0.0000
  0
INSERT
  8
21
  2
RECT
 10
61.0187
 20
7.3025
 30
0.0000
 41
0.8636
 42
0.6096
 43
1.0000
 50
0.0000
  0
LINE
  8
21
 10
50.0600
 20
0.8100
 30
0.0000
 11
46.4600
 21
0.8100
 31
0.0000
  0
LINE
  8
21
 10
46.4600
 20
6.8100
 30
0.0000
 11
50.0600
 21
6.8100
 31
0.0000
  0
LINE
  8
21
 10
50.0600
 20
6.8100
 30
0.0000
 11
50.6600
 21
6.8100
 31
0.0000
  0
LINE
  8
21
 10
50.0600
 20
0.8100
 30
0.0000
 11
50.6600
 21
0.8100
 31
0.0000
  0
LINE
  8
21
 10
51.2600
 20
2.6600
 30
0.0000
 11
51.2600
 21
4.9600
 31
0.0000
  0
LINE
  8
21
 10
46.4600
 20
0.8100
 30
0.0000
 11
45.8600
 21
0.8100
 31
0.0000
  0
LINE
  8
21
 10
46.4600
 20
6.8100
 30
0.0000
 11
45.8600
 21
6.8100
 31
0.0000
  0
LINE
  8
21
 10
45.2600
 20
4.9600
 30
0.0000
 11
45.2600
 21
2.6600
 31
0.0000
  0
CIRCLE
  8
21
 10
48.2600
 20
3.8100
 30
0.0000
 40
1.7500
  0
ENDSEC
  0
EOF
